ISO-10303-21;
HEADER;
FILE_DESCRIPTION((''),'2;1');
FILE_NAME('30G_D300090A','2006-01-03T',('Pepperl+Fuchs'),('Industriehansa'),
'PRO/ENGINEER BY PARAMETRIC TECHNOLOGY CORPORATION, 2005290',
'PRO/ENGINEER BY PARAMETRIC TECHNOLOGY CORPORATION, 2005290','');
FILE_SCHEMA(('AUTOMOTIVE_DESIGN_CC2 { 1 2 10303 214 -1 1 5 2 }'));
ENDSEC;
DATA;
#1=DRAUGHTING_PRE_DEFINED_COLOUR('black');
#2=COLOUR_RGB('',0.E0,0.E0,6.E-1);
#3=COLOUR_RGB('',0.E0,0.E0,8.E-1);
#4=DRAUGHTING_PRE_DEFINED_COLOUR('blue');
#5=COLOUR_RGB('',0.E0,2.2E-1,0.E0);
#6=COLOUR_RGB('',0.E0,4.E-1,0.E0);
#7=COLOUR_RGB('',0.E0,6.E-1,0.E0);
#8=COLOUR_RGB('',0.E0,6.E-1,4.E-1);
#9=COLOUR_RGB('',0.E0,8.E-1,0.E0);
#10=DRAUGHTING_PRE_DEFINED_COLOUR('green');
#11=DRAUGHTING_PRE_DEFINED_COLOUR('cyan');
#12=COLOUR_RGB('',4.E-2,4.E-2,4.E-2);
#13=COLOUR_RGB('',1.26263E-1,1.26263E-1,1.26263E-1);
#14=COLOUR_RGB('',2.E-1,0.E0,0.E0);
#15=COLOUR_RGB('',2.E-1,2.E-1,0.E0);
#16=COLOUR_RGB('',2.E-1,2.E-1,1.E0);
#17=COLOUR_RGB('',2.E-1,1.E0,2.E-1);
#18=COLOUR_RGB('',3.1E-1,5.2E-1,1.4E-1);
#19=COLOUR_RGB('',3.1E-1,1.E0,1.E0);
#20=COLOUR_RGB('',3.58586E-1,3.58586E-1,3.58586E-1);
#21=COLOUR_RGB('',4.E-1,0.E0,0.E0);
#22=COLOUR_RGB('',4.E-1,4.E-1,0.E0);
#23=COLOUR_RGB('',4.E-1,4.E-1,1.E0);
#24=COLOUR_RGB('',4.E-1,1.E0,4.E-1);
#25=COLOUR_RGB('',4.24242E-1,3.1784E-1,1.97123E-1);
#26=COLOUR_RGB('',5.15152E-1,5.15152E-1,5.15152E-1);
#27=COLOUR_RGB('',5.88235E-1,5.88235E-1,5.88235E-1);
#28=COLOUR_RGB('',6.E-1,0.E0,0.E0);
#29=COLOUR_RGB('',6.E-1,6.E-1,0.E0);
#30=COLOUR_RGB('',6.E-1,6.E-1,1.E0);
#31=COLOUR_RGB('',6.E-1,1.E0,6.E-1);
#32=COLOUR_RGB('',6.22737E-1,6.66098E-1,9.84848E-1);
#33=COLOUR_RGB('',6.666666666667E-1,5.058823529412E-1,2.156862745098E-1);
#34=COLOUR_RGB('',6.81818E-1,5.10814E-1,3.16804E-1);
#35=COLOUR_RGB('',7.E-1,1.E0,1.E0);
#36=COLOUR_RGB('',7.0202E-1,7.0202E-1,7.0202E-1);
#37=COLOUR_RGB('',8.E-1,0.E0,0.E0);
#38=COLOUR_RGB('',8.E-1,8.E-1,1.E0);
#39=COLOUR_RGB('',8.E-1,9.2E-1,0.E0);
#40=COLOUR_RGB('',8.E-1,1.E0,8.E-1);
#41=COLOUR_RGB('',8.23232E-1,6.16761E-1,3.82512E-1);
#42=COLOUR_RGB('',8.784E-1,9.49E-1,1.E0);
#43=COLOUR_RGB('',9.E-1,4.1E-1,4.1E-1);
#44=COLOUR_RGB('',9.E-1,6.E-1,4.1E-1);
#45=COLOUR_RGB('',9.84848E-1,9.84848E-1,9.84848E-1);
#46=DRAUGHTING_PRE_DEFINED_COLOUR('red');
#47=DRAUGHTING_PRE_DEFINED_COLOUR('magenta');
#48=COLOUR_RGB('',1.E0,2.E-1,2.E-1);
#49=COLOUR_RGB('',1.E0,4.E-1,4.E-1);
#50=COLOUR_RGB('',1.E0,6.E-1,6.E-1);
#51=COLOUR_RGB('',1.E0,8.E-1,8.E-1);
#52=DRAUGHTING_PRE_DEFINED_COLOUR('yellow');
#53=COLOUR_RGB('',1.E0,1.E0,3.E-1);
#54=COLOUR_RGB('',1.E0,1.E0,5.E-1);
#55=DRAUGHTING_PRE_DEFINED_COLOUR('white');
#57=CARTESIAN_POINT('',(0.E0,0.E0,-8.393286066166E-13));
#58=DIRECTION('',(0.E0,0.E0,1.E0));
#59=DIRECTION('',(-1.E0,0.E0,0.E0));
#60=AXIS2_PLACEMENT_3D('',#57,#58,#59);
#62=DRAUGHTING_PRE_DEFINED_CURVE_FONT('continuous');
#63=CURVE_STYLE('',#62,POSITIVE_LENGTH_MEASURE(2.E-2),#8);
#64=PRESENTATION_STYLE_ASSIGNMENT((#63));
#65=STYLED_ITEM('',(#64),#61);
#66=CARTESIAN_POINT('',(0.E0,0.E0,-8.393286066166E-13));
#67=DIRECTION('',(0.E0,0.E0,1.E0));
#68=DIRECTION('',(1.E0,0.E0,0.E0));
#69=AXIS2_PLACEMENT_3D('',#66,#67,#68);
#71=CURVE_STYLE('',#62,POSITIVE_LENGTH_MEASURE(2.E-2),#8);
#72=PRESENTATION_STYLE_ASSIGNMENT((#71));
#73=STYLED_ITEM('',(#72),#70);
#74=CARTESIAN_POINT('',(-1.4E1,0.E0,-1.E0));
#75=DIRECTION('',(0.E0,-1.E0,0.E0));
#76=DIRECTION('',(0.E0,0.E0,1.E0));
#77=AXIS2_PLACEMENT_3D('',#74,#75,#76);
#79=CURVE_STYLE('',#62,POSITIVE_LENGTH_MEASURE(2.E-2),#8);
#80=PRESENTATION_STYLE_ASSIGNMENT((#79));
#81=STYLED_ITEM('',(#80),#78);
#82=CARTESIAN_POINT('',(1.4E1,0.E0,-1.E0));
#83=DIRECTION('',(0.E0,1.E0,0.E0));
#84=DIRECTION('',(0.E0,0.E0,1.E0));
#85=AXIS2_PLACEMENT_3D('',#82,#83,#84);
#87=CURVE_STYLE('',#62,POSITIVE_LENGTH_MEASURE(2.E-2),#8);
#88=PRESENTATION_STYLE_ASSIGNMENT((#87));
#89=STYLED_ITEM('',(#88),#86);
#90=CARTESIAN_POINT('',(0.E0,0.E0,-1.E0));
#91=DIRECTION('',(0.E0,0.E0,1.E0));
#92=DIRECTION('',(1.E0,0.E0,0.E0));
#93=AXIS2_PLACEMENT_3D('',#90,#91,#92);
#95=CURVE_STYLE('',#62,POSITIVE_LENGTH_MEASURE(2.E-2),#8);
#96=PRESENTATION_STYLE_ASSIGNMENT((#95));
#97=STYLED_ITEM('',(#96),#94);
#98=CARTESIAN_POINT('',(0.E0,0.E0,-7.3E1));
#99=DIRECTION('',(0.E0,0.E0,1.E0));
#100=DIRECTION('',(1.E0,0.E0,0.E0));
#101=AXIS2_PLACEMENT_3D('',#98,#99,#100);
#103=CURVE_STYLE('',#62,POSITIVE_LENGTH_MEASURE(2.E-2),#8);
#104=PRESENTATION_STYLE_ASSIGNMENT((#103));
#105=STYLED_ITEM('',(#104),#102);
#106=DIRECTION('',(0.E0,2.148869715181E-14,-1.E0));
#107=VECTOR('',#106,7.2E1);
#108=CARTESIAN_POINT('',(1.5E1,-1.549635407638E-12,-1.E0));
#109=LINE('',#108,#107);
#110=CURVE_STYLE('',#62,POSITIVE_LENGTH_MEASURE(2.E-2),#8);
#111=PRESENTATION_STYLE_ASSIGNMENT((#110));
#112=STYLED_ITEM('',(#111),#109);
#113=CARTESIAN_POINT('',(0.E0,0.E0,-1.E0));
#114=DIRECTION('',(0.E0,0.E0,1.E0));
#115=DIRECTION('',(-1.E0,0.E0,0.E0));
#116=AXIS2_PLACEMENT_3D('',#113,#114,#115);
#118=CURVE_STYLE('',#62,POSITIVE_LENGTH_MEASURE(2.E-2),#8);
#119=PRESENTATION_STYLE_ASSIGNMENT((#118));
#120=STYLED_ITEM('',(#119),#117);
#121=CARTESIAN_POINT('',(0.E0,0.E0,-7.3E1));
#122=DIRECTION('',(0.E0,0.E0,1.E0));
#123=DIRECTION('',(-1.E0,0.E0,0.E0));
#124=AXIS2_PLACEMENT_3D('',#121,#122,#123);
#126=CURVE_STYLE('',#62,POSITIVE_LENGTH_MEASURE(2.E-2),#8);
#127=PRESENTATION_STYLE_ASSIGNMENT((#126));
#128=STYLED_ITEM('',(#127),#125);
#129=DIRECTION('',(0.E0,-2.153405123187E-14,-1.E0));
#130=VECTOR('',#129,7.2E1);
#131=CARTESIAN_POINT('',(-1.5E1,1.552288598225E-12,-1.E0));
#132=LINE('',#131,#130);
#133=CURVE_STYLE('',#62,POSITIVE_LENGTH_MEASURE(2.E-2),#8);
#134=PRESENTATION_STYLE_ASSIGNMENT((#133));
#135=STYLED_ITEM('',(#134),#132);
#136=CARTESIAN_POINT('',(0.E0,0.E0,-7.3E1));
#137=DIRECTION('',(0.E0,0.E0,1.E0));
#138=DIRECTION('',(-1.E0,0.E0,0.E0));
#139=AXIS2_PLACEMENT_3D('',#136,#137,#138);
#141=CURVE_STYLE('',#62,POSITIVE_LENGTH_MEASURE(2.E-2),#8);
#142=PRESENTATION_STYLE_ASSIGNMENT((#141));
#143=STYLED_ITEM('',(#142),#140);
#144=CARTESIAN_POINT('',(0.E0,0.E0,-7.3E1));
#145=DIRECTION('',(0.E0,0.E0,1.E0));
#146=DIRECTION('',(1.E0,0.E0,0.E0));
#147=AXIS2_PLACEMENT_3D('',#144,#145,#146);
#149=CURVE_STYLE('',#62,POSITIVE_LENGTH_MEASURE(2.E-2),#8);
#150=PRESENTATION_STYLE_ASSIGNMENT((#149));
#151=STYLED_ITEM('',(#150),#148);
#152=CARTESIAN_POINT('',(0.E0,0.E0,-9.2E1));
#153=DIRECTION('',(0.E0,0.E0,-1.E0));
#154=DIRECTION('',(1.E0,0.E0,0.E0));
#155=AXIS2_PLACEMENT_3D('',#152,#153,#154);
#157=CURVE_STYLE('',#62,POSITIVE_LENGTH_MEASURE(2.E-2),#8);
#158=PRESENTATION_STYLE_ASSIGNMENT((#157));
#159=STYLED_ITEM('',(#158),#156);
#160=DIRECTION('',(0.E0,1.186894991897E-13,1.E0));
#161=VECTOR('',#160,1.9E1);
#162=CARTESIAN_POINT('',(-1.4E1,-2.256814933500E-12,-9.2E1));
#163=LINE('',#162,#161);
#164=CURVE_STYLE('',#62,POSITIVE_LENGTH_MEASURE(2.E-2),#8);
#165=PRESENTATION_STYLE_ASSIGNMENT((#164));
#166=STYLED_ITEM('',(#165),#163);
#167=CARTESIAN_POINT('',(1.3E1,0.E0,-9.2E1));
#168=DIRECTION('',(0.E0,-1.E0,0.E0));
#169=DIRECTION('',(0.E0,0.E0,-1.E0));
#170=AXIS2_PLACEMENT_3D('',#167,#168,#169);
#172=CURVE_STYLE('',#62,POSITIVE_LENGTH_MEASURE(2.E-2),#8);
#173=PRESENTATION_STYLE_ASSIGNMENT((#172));
#174=STYLED_ITEM('',(#173),#171);
#175=CARTESIAN_POINT('',(0.E0,0.E0,-9.3E1));
#176=DIRECTION('',(0.E0,0.E0,-1.E0));
#177=DIRECTION('',(-1.E0,0.E0,0.E0));
#178=AXIS2_PLACEMENT_3D('',#175,#176,#177);
#180=CURVE_STYLE('',#62,POSITIVE_LENGTH_MEASURE(2.E-2),#8);
#181=PRESENTATION_STYLE_ASSIGNMENT((#180));
#182=STYLED_ITEM('',(#181),#179);
#183=CARTESIAN_POINT('',(0.E0,0.E0,-9.3E1));
#184=DIRECTION('',(0.E0,0.E0,-1.E0));
#185=DIRECTION('',(1.E0,0.E0,0.E0));
#186=AXIS2_PLACEMENT_3D('',#183,#184,#185);
#188=CURVE_STYLE('',#62,POSITIVE_LENGTH_MEASURE(2.E-2),#8);
#189=PRESENTATION_STYLE_ASSIGNMENT((#188));
#190=STYLED_ITEM('',(#189),#187);
#191=CARTESIAN_POINT('',(0.E0,0.E0,-9.3E1));
#192=DIRECTION('',(0.E0,0.E0,-1.E0));
#193=DIRECTION('',(1.E0,0.E0,0.E0));
#194=AXIS2_PLACEMENT_3D('',#191,#192,#193);
#196=CURVE_STYLE('',#62,POSITIVE_LENGTH_MEASURE(2.E-2),#8);
#197=PRESENTATION_STYLE_ASSIGNMENT((#196));
#198=STYLED_ITEM('',(#197),#195);
#199=CARTESIAN_POINT('',(0.E0,0.E0,-9.3E1));
#200=DIRECTION('',(0.E0,0.E0,-1.E0));
#201=DIRECTION('',(-1.E0,0.E0,0.E0));
#202=AXIS2_PLACEMENT_3D('',#199,#200,#201);
#204=CURVE_STYLE('',#62,POSITIVE_LENGTH_MEASURE(2.E-2),#8);
#205=PRESENTATION_STYLE_ASSIGNMENT((#204));
#206=STYLED_ITEM('',(#205),#203);
#207=CARTESIAN_POINT('',(-1.3E1,0.E0,-9.2E1));
#208=DIRECTION('',(0.E0,1.E0,0.E0));
#209=DIRECTION('',(0.E0,0.E0,-1.E0));
#210=AXIS2_PLACEMENT_3D('',#207,#208,#209);
#212=CURVE_STYLE('',#62,POSITIVE_LENGTH_MEASURE(2.E-2),#8);
#213=PRESENTATION_STYLE_ASSIGNMENT((#212));
#214=STYLED_ITEM('',(#213),#211);
#215=CARTESIAN_POINT('',(0.E0,0.E0,-9.2E1));
#216=DIRECTION('',(0.E0,0.E0,-1.E0));
#217=DIRECTION('',(-1.E0,0.E0,0.E0));
#218=AXIS2_PLACEMENT_3D('',#215,#216,#217);
#220=CURVE_STYLE('',#62,POSITIVE_LENGTH_MEASURE(2.E-2),#8);
#221=PRESENTATION_STYLE_ASSIGNMENT((#220));
#222=STYLED_ITEM('',(#221),#219);
#223=DIRECTION('',(0.E0,-1.186738795455E-13,1.E0));
#224=VECTOR('',#223,1.9E1);
#225=CARTESIAN_POINT('',(1.4E1,2.256518160260E-12,-9.2E1));
#226=LINE('',#225,#224);
#227=CURVE_STYLE('',#62,POSITIVE_LENGTH_MEASURE(2.E-2),#8);
#228=PRESENTATION_STYLE_ASSIGNMENT((#227));
#229=STYLED_ITEM('',(#228),#226);
#230=DIRECTION('',(0.E0,0.E0,-1.E0));
#231=VECTOR('',#230,1.E1);
#232=CARTESIAN_POINT('',(3.E0,0.E0,-9.3E1));
#233=LINE('',#232,#231);
#234=CURVE_STYLE('',#62,POSITIVE_LENGTH_MEASURE(2.E-2),#8);
#235=PRESENTATION_STYLE_ASSIGNMENT((#234));
#236=STYLED_ITEM('',(#235),#233);
#237=DIRECTION('',(0.E0,0.E0,-1.E0));
#238=VECTOR('',#237,1.E1);
#239=CARTESIAN_POINT('',(-3.E0,0.E0,-9.3E1));
#240=LINE('',#239,#238);
#241=CURVE_STYLE('',#62,POSITIVE_LENGTH_MEASURE(2.E-2),#8);
#242=PRESENTATION_STYLE_ASSIGNMENT((#241));
#243=STYLED_ITEM('',(#242),#240);
#244=CARTESIAN_POINT('',(0.E0,0.E0,-1.03E2));
#245=DIRECTION('',(0.E0,0.E0,-1.E0));
#246=DIRECTION('',(1.E0,0.E0,0.E0));
#247=AXIS2_PLACEMENT_3D('',#244,#245,#246);
#249=CURVE_STYLE('',#62,POSITIVE_LENGTH_MEASURE(2.E-2),#8);
#250=PRESENTATION_STYLE_ASSIGNMENT((#249));
#251=STYLED_ITEM('',(#250),#248);
#252=CARTESIAN_POINT('',(0.E0,0.E0,-1.03E2));
#253=DIRECTION('',(0.E0,0.E0,-1.E0));
#254=DIRECTION('',(-1.E0,0.E0,0.E0));
#255=AXIS2_PLACEMENT_3D('',#252,#253,#254);
#257=CURVE_STYLE('',#62,POSITIVE_LENGTH_MEASURE(2.E-2),#8);
#258=PRESENTATION_STYLE_ASSIGNMENT((#257));
#259=STYLED_ITEM('',(#258),#256);
#260=CARTESIAN_POINT('',(-1.4E1,0.E0,-7.3E1));
#261=CARTESIAN_POINT('',(1.4E1,0.E0,-7.3E1));
#262=VERTEX_POINT('',#260);
#263=VERTEX_POINT('',#261);
#264=CARTESIAN_POINT('',(1.5E1,0.E0,-7.3E1));
#265=CARTESIAN_POINT('',(-1.5E1,0.E0,-7.3E1));
#266=VERTEX_POINT('',#264);
#267=VERTEX_POINT('',#265);
#268=CARTESIAN_POINT('',(-1.399999870439E1,0.E0,-8.393286066166E-13));
#269=CARTESIAN_POINT('',(1.399999870439E1,0.E0,-8.393286066166E-13));
#270=VERTEX_POINT('',#268);
#271=VERTEX_POINT('',#269);
#272=CARTESIAN_POINT('',(-1.5E1,0.E0,-1.E0));
#273=CARTESIAN_POINT('',(1.5E1,0.E0,-1.E0));
#274=VERTEX_POINT('',#272);
#275=VERTEX_POINT('',#273);
#276=CARTESIAN_POINT('',(-1.299999853441E1,0.E0,-9.3E1));
#277=CARTESIAN_POINT('',(1.299999853441E1,0.E0,-9.3E1));
#278=VERTEX_POINT('',#276);
#279=VERTEX_POINT('',#277);
#280=CARTESIAN_POINT('',(-1.4E1,0.E0,-9.2E1));
#281=CARTESIAN_POINT('',(1.4E1,0.E0,-9.2E1));
#282=VERTEX_POINT('',#280);
#283=VERTEX_POINT('',#281);
#284=CARTESIAN_POINT('',(3.E0,0.E0,-1.03E2));
#285=CARTESIAN_POINT('',(-3.E0,0.E0,-1.03E2));
#286=VERTEX_POINT('',#284);
#287=VERTEX_POINT('',#285);
#288=CARTESIAN_POINT('',(3.E0,0.E0,-9.3E1));
#289=CARTESIAN_POINT('',(-3.E0,0.E0,-9.3E1));
#290=VERTEX_POINT('',#288);
#291=VERTEX_POINT('',#289);
#292=CARTESIAN_POINT('',(0.E0,0.E0,0.E0));
#293=DIRECTION('',(0.E0,0.E0,1.E0));
#294=DIRECTION('',(1.E0,0.E0,0.E0));
#295=AXIS2_PLACEMENT_3D('',#292,#293,#294);
#296=PLANE('',#295);
#298=ORIENTED_EDGE('',*,*,#297,.F.);
#300=ORIENTED_EDGE('',*,*,#299,.F.);
#301=EDGE_LOOP('',(#298,#300));
#302=FACE_OUTER_BOUND('',#301,.F.);
#303=ADVANCED_FACE('',(#302),#296,.T.);
#304=CARTESIAN_POINT('',(0.E0,0.E0,-1.E0));
#305=DIRECTION('',(0.E0,0.E0,1.E0));
#306=DIRECTION('',(-9.999450926584E-1,1.047910627969E-2,0.E0));
#307=AXIS2_PLACEMENT_3D('',#304,#305,#306);
#308=TOROIDAL_SURFACE('',#307,1.4E1,1.E0);
#309=ORIENTED_EDGE('',*,*,#297,.T.);
#311=ORIENTED_EDGE('',*,*,#310,.T.);
#313=ORIENTED_EDGE('',*,*,#312,.F.);
#315=ORIENTED_EDGE('',*,*,#314,.F.);
#316=EDGE_LOOP('',(#309,#311,#313,#315));
#317=FACE_OUTER_BOUND('',#316,.F.);
#318=ADVANCED_FACE('',(#317),#308,.T.);
#319=CARTESIAN_POINT('',(0.E0,0.E0,-1.E0));
#320=DIRECTION('',(0.E0,0.E0,1.E0));
#321=DIRECTION('',(9.999450926584E-1,-1.047910627969E-2,0.E0));
#322=AXIS2_PLACEMENT_3D('',#319,#320,#321);
#323=TOROIDAL_SURFACE('',#322,1.4E1,1.E0);
#324=ORIENTED_EDGE('',*,*,#299,.T.);
#325=ORIENTED_EDGE('',*,*,#314,.T.);
#327=ORIENTED_EDGE('',*,*,#326,.F.);
#328=ORIENTED_EDGE('',*,*,#310,.F.);
#329=EDGE_LOOP('',(#324,#325,#327,#328));
#330=FACE_OUTER_BOUND('',#329,.F.);
#331=ADVANCED_FACE('',(#330),#323,.T.);
#332=CARTESIAN_POINT('',(0.E0,0.E0,0.E0));
#333=DIRECTION('',(0.E0,0.E0,1.E0));
#334=DIRECTION('',(1.E0,0.E0,0.E0));
#335=AXIS2_PLACEMENT_3D('',#332,#333,#334);
#336=CYLINDRICAL_SURFACE('',#335,1.5E1);
#337=ORIENTED_EDGE('',*,*,#326,.T.);
#339=ORIENTED_EDGE('',*,*,#338,.T.);
#341=ORIENTED_EDGE('',*,*,#340,.F.);
#343=ORIENTED_EDGE('',*,*,#342,.F.);
#344=EDGE_LOOP('',(#337,#339,#341,#343));
#345=FACE_OUTER_BOUND('',#344,.F.);
#346=ADVANCED_FACE('',(#345),#336,.T.);
#347=CARTESIAN_POINT('',(0.E0,0.E0,0.E0));
#348=DIRECTION('',(0.E0,0.E0,1.E0));
#349=DIRECTION('',(1.E0,0.E0,0.E0));
#350=AXIS2_PLACEMENT_3D('',#347,#348,#349);
#351=CYLINDRICAL_SURFACE('',#350,1.5E1);
#352=ORIENTED_EDGE('',*,*,#312,.T.);
#353=ORIENTED_EDGE('',*,*,#342,.T.);
#355=ORIENTED_EDGE('',*,*,#354,.F.);
#356=ORIENTED_EDGE('',*,*,#338,.F.);
#357=EDGE_LOOP('',(#352,#353,#355,#356));
#358=FACE_OUTER_BOUND('',#357,.F.);
#359=ADVANCED_FACE('',(#358),#351,.T.);
#360=CARTESIAN_POINT('',(0.E0,0.E0,-7.3E1));
#361=DIRECTION('',(0.E0,0.E0,-1.E0));
#362=DIRECTION('',(-1.E0,0.E0,0.E0));
#363=AXIS2_PLACEMENT_3D('',#360,#361,#362);
#364=PLANE('',#363);
#365=ORIENTED_EDGE('',*,*,#340,.T.);
#366=ORIENTED_EDGE('',*,*,#354,.T.);
#367=EDGE_LOOP('',(#365,#366));
#368=FACE_OUTER_BOUND('',#367,.F.);
#370=ORIENTED_EDGE('',*,*,#369,.F.);
#372=ORIENTED_EDGE('',*,*,#371,.F.);
#373=EDGE_LOOP('',(#370,#372));
#374=FACE_BOUND('',#373,.F.);
#375=ADVANCED_FACE('',(#368,#374),#364,.T.);
#376=CARTESIAN_POINT('',(0.E0,0.E0,-9.3E1));
#377=DIRECTION('',(0.E0,0.E0,-1.E0));
#378=DIRECTION('',(-1.E0,0.E0,0.E0));
#379=AXIS2_PLACEMENT_3D('',#376,#377,#378);
#380=CYLINDRICAL_SURFACE('',#379,1.4E1);
#382=ORIENTED_EDGE('',*,*,#381,.T.);
#384=ORIENTED_EDGE('',*,*,#383,.T.);
#385=ORIENTED_EDGE('',*,*,#369,.T.);
#387=ORIENTED_EDGE('',*,*,#386,.F.);
#388=EDGE_LOOP('',(#382,#384,#385,#387));
#389=FACE_OUTER_BOUND('',#388,.F.);
#390=ADVANCED_FACE('',(#389),#380,.T.);
#391=CARTESIAN_POINT('',(0.E0,0.E0,-9.2E1));
#392=DIRECTION('',(0.E0,0.E0,-1.E0));
#393=DIRECTION('',(9.999369686983E-1,1.122758346607E-2,0.E0));
#394=AXIS2_PLACEMENT_3D('',#391,#392,#393);
#395=TOROIDAL_SURFACE('',#394,1.3E1,1.E0);
#397=ORIENTED_EDGE('',*,*,#396,.T.);
#399=ORIENTED_EDGE('',*,*,#398,.T.);
#400=ORIENTED_EDGE('',*,*,#381,.F.);
#402=ORIENTED_EDGE('',*,*,#401,.F.);
#403=EDGE_LOOP('',(#397,#399,#400,#402));
#404=FACE_OUTER_BOUND('',#403,.F.);
#405=ADVANCED_FACE('',(#404),#395,.T.);
#406=CARTESIAN_POINT('',(0.E0,0.E0,-9.3E1));
#407=DIRECTION('',(0.E0,0.E0,1.E0));
#408=DIRECTION('',(1.E0,0.E0,0.E0));
#409=AXIS2_PLACEMENT_3D('',#406,#407,#408);
#410=PLANE('',#409);
#412=ORIENTED_EDGE('',*,*,#411,.F.);
#413=ORIENTED_EDGE('',*,*,#396,.F.);
#414=EDGE_LOOP('',(#412,#413));
#415=FACE_OUTER_BOUND('',#414,.F.);
#417=ORIENTED_EDGE('',*,*,#416,.T.);
#419=ORIENTED_EDGE('',*,*,#418,.T.);
#420=EDGE_LOOP('',(#417,#419));
#421=FACE_BOUND('',#420,.F.);
#422=ADVANCED_FACE('',(#415,#421),#410,.F.);
#423=CARTESIAN_POINT('',(0.E0,0.E0,-9.2E1));
#424=DIRECTION('',(0.E0,0.E0,-1.E0));
#425=DIRECTION('',(-9.999369686983E-1,-1.122758346607E-2,0.E0));
#426=AXIS2_PLACEMENT_3D('',#423,#424,#425);
#427=TOROIDAL_SURFACE('',#426,1.3E1,1.E0);
#428=ORIENTED_EDGE('',*,*,#411,.T.);
#429=ORIENTED_EDGE('',*,*,#401,.T.);
#431=ORIENTED_EDGE('',*,*,#430,.F.);
#432=ORIENTED_EDGE('',*,*,#398,.F.);
#433=EDGE_LOOP('',(#428,#429,#431,#432));
#434=FACE_OUTER_BOUND('',#433,.F.);
#435=ADVANCED_FACE('',(#434),#427,.T.);
#436=CARTESIAN_POINT('',(0.E0,0.E0,-9.3E1));
#437=DIRECTION('',(0.E0,0.E0,-1.E0));
#438=DIRECTION('',(-1.E0,0.E0,0.E0));
#439=AXIS2_PLACEMENT_3D('',#436,#437,#438);
#440=CYLINDRICAL_SURFACE('',#439,1.4E1);
#441=ORIENTED_EDGE('',*,*,#430,.T.);
#442=ORIENTED_EDGE('',*,*,#386,.T.);
#443=ORIENTED_EDGE('',*,*,#371,.T.);
#444=ORIENTED_EDGE('',*,*,#383,.F.);
#445=EDGE_LOOP('',(#441,#442,#443,#444));
#446=FACE_OUTER_BOUND('',#445,.F.);
#447=ADVANCED_FACE('',(#446),#440,.T.);
#448=CARTESIAN_POINT('',(0.E0,0.E0,-9.3E1));
#449=DIRECTION('',(0.E0,0.E0,-1.E0));
#450=DIRECTION('',(1.E0,0.E0,0.E0));
#451=AXIS2_PLACEMENT_3D('',#448,#449,#450);
#452=CYLINDRICAL_SURFACE('',#451,3.E0);
#453=ORIENTED_EDGE('',*,*,#416,.F.);
#455=ORIENTED_EDGE('',*,*,#454,.T.);
#457=ORIENTED_EDGE('',*,*,#456,.T.);
#459=ORIENTED_EDGE('',*,*,#458,.F.);
#460=EDGE_LOOP('',(#453,#455,#457,#459));
#461=FACE_OUTER_BOUND('',#460,.F.);
#462=ADVANCED_FACE('',(#461),#452,.T.);
#463=FILL_AREA_STYLE_COLOUR('',#27);
#464=FILL_AREA_STYLE('',(#463));
#465=SURFACE_STYLE_FILL_AREA(#464);
#466=SURFACE_SIDE_STYLE('',(#465));
#467=SURFACE_STYLE_USAGE(.POSITIVE.,#466);
#468=FILL_AREA_STYLE_COLOUR('',#8);
#469=FILL_AREA_STYLE('',(#468));
#470=SURFACE_STYLE_FILL_AREA(#469);
#471=SURFACE_SIDE_STYLE('',(#470));
#472=SURFACE_STYLE_USAGE(.NEGATIVE.,#471);
#473=PRESENTATION_STYLE_ASSIGNMENT((#467,#472));
#474=OVER_RIDING_STYLED_ITEM('',(#473),#462,#56);
#475=CARTESIAN_POINT('',(0.E0,0.E0,-9.3E1));
#476=DIRECTION('',(0.E0,0.E0,-1.E0));
#477=DIRECTION('',(1.E0,0.E0,0.E0));
#478=AXIS2_PLACEMENT_3D('',#475,#476,#477);
#479=CYLINDRICAL_SURFACE('',#478,3.E0);
#480=ORIENTED_EDGE('',*,*,#418,.F.);
#481=ORIENTED_EDGE('',*,*,#458,.T.);
#483=ORIENTED_EDGE('',*,*,#482,.T.);
#484=ORIENTED_EDGE('',*,*,#454,.F.);
#485=EDGE_LOOP('',(#480,#481,#483,#484));
#486=FACE_OUTER_BOUND('',#485,.F.);
#487=ADVANCED_FACE('',(#486),#479,.T.);
#488=FILL_AREA_STYLE_COLOUR('',#27);
#489=FILL_AREA_STYLE('',(#488));
#490=SURFACE_STYLE_FILL_AREA(#489);
#491=SURFACE_SIDE_STYLE('',(#490));
#492=SURFACE_STYLE_USAGE(.POSITIVE.,#491);
#493=FILL_AREA_STYLE_COLOUR('',#8);
#494=FILL_AREA_STYLE('',(#493));
#495=SURFACE_STYLE_FILL_AREA(#494);
#496=SURFACE_SIDE_STYLE('',(#495));
#497=SURFACE_STYLE_USAGE(.NEGATIVE.,#496);
#498=PRESENTATION_STYLE_ASSIGNMENT((#492,#497));
#499=OVER_RIDING_STYLED_ITEM('',(#498),#487,#56);
#500=CARTESIAN_POINT('',(0.E0,0.E0,-1.03E2));
#501=DIRECTION('',(0.E0,0.E0,-1.E0));
#502=DIRECTION('',(1.E0,0.E0,0.E0));
#503=AXIS2_PLACEMENT_3D('',#500,#501,#502);
#504=PLANE('',#503);
#505=ORIENTED_EDGE('',*,*,#456,.F.);
#506=ORIENTED_EDGE('',*,*,#482,.F.);
#507=EDGE_LOOP('',(#505,#506));
#508=FACE_OUTER_BOUND('',#507,.F.);
#509=ADVANCED_FACE('',(#508),#504,.T.);
#510=FILL_AREA_STYLE_COLOUR('',#27);
#511=FILL_AREA_STYLE('',(#510));
#512=SURFACE_STYLE_FILL_AREA(#511);
#513=SURFACE_SIDE_STYLE('',(#512));
#514=SURFACE_STYLE_USAGE(.POSITIVE.,#513);
#515=FILL_AREA_STYLE_COLOUR('',#8);
#516=FILL_AREA_STYLE('',(#515));
#517=SURFACE_STYLE_FILL_AREA(#516);
#518=SURFACE_SIDE_STYLE('',(#517));
#519=SURFACE_STYLE_USAGE(.NEGATIVE.,#518);
#520=PRESENTATION_STYLE_ASSIGNMENT((#514,#519));
#521=OVER_RIDING_STYLED_ITEM('',(#520),#509,#56);
#522=CLOSED_SHELL('',(#303,#318,#331,#346,#359,#375,#390,#405,#422,#435,#447,
#462,#487,#509));
#523=MANIFOLD_SOLID_BREP('',#522);
#524=FILL_AREA_STYLE_COLOUR('',#8);
#525=FILL_AREA_STYLE('',(#524));
#526=SURFACE_STYLE_FILL_AREA(#525);
#527=SURFACE_SIDE_STYLE('',(#526));
#528=SURFACE_STYLE_USAGE(.BOTH.,#527);
#529=PRESENTATION_STYLE_ASSIGNMENT((#528));
#56=STYLED_ITEM('',(#529),#523);
#530=CARTESIAN_POINT('',(0.E0,0.E0,0.E0));
#531=DIRECTION('',(0.E0,0.E0,1.E0));
#532=DIRECTION('',(1.E0,0.E0,0.E0));
#533=AXIS2_PLACEMENT_3D('PRT_CSYS_DEF',#530,#531,#532);
#534=CURVE_STYLE('',#62,POSITIVE_LENGTH_MEASURE(2.E-2),#33);
#535=PRESENTATION_STYLE_ASSIGNMENT((#534));
#536=STYLED_ITEM('',(#535),#533);
#537=DIRECTION('',(0.E0,0.E0,1.E0));
#538=VECTOR('',#537,7.2E1);
#539=CARTESIAN_POINT('',(0.E0,0.E0,-7.3E1));
#540=LINE('',#539,#538);
#542=CURVE_STYLE('',#62,POSITIVE_LENGTH_MEASURE(2.E-2),#52);
#543=PRESENTATION_STYLE_ASSIGNMENT((#542));
#544=STYLED_ITEM('',(#543),#541);
#546=DIRECTION('',(0.E0,0.E0,-1.E0));
#547=VECTOR('',#546,1.9E1);
#548=CARTESIAN_POINT('',(0.E0,0.E0,-7.3E1));
#549=LINE('',#548,#547);
#551=CURVE_STYLE('',#62,POSITIVE_LENGTH_MEASURE(2.E-2),#52);
#552=PRESENTATION_STYLE_ASSIGNMENT((#551));
#553=STYLED_ITEM('',(#552),#550);
#554=CARTESIAN_POINT('',(0.E0,0.E0,0.E0));
#555=DIRECTION('',(0.E0,0.E0,1.E0));
#556=DIRECTION('',(1.E0,0.E0,0.E0));
#557=AXIS2_PLACEMENT_3D('',#554,#555,#556);
#560=CURVE_STYLE('',#62,POSITIVE_LENGTH_MEASURE(2.E-2),#11);
#561=PRESENTATION_STYLE_ASSIGNMENT((#560));
#562=STYLED_ITEM('',(#561),#559);
#564=CARTESIAN_POINT('',(0.E0,0.E0,0.E0));
#565=DIRECTION('',(0.E0,0.E0,1.E0));
#566=DIRECTION('',(-1.E0,0.E0,0.E0));
#567=AXIS2_PLACEMENT_3D('',#564,#565,#566);
#570=CURVE_STYLE('',#62,POSITIVE_LENGTH_MEASURE(2.E-2),#11);
#571=PRESENTATION_STYLE_ASSIGNMENT((#570));
#572=STYLED_ITEM('',(#571),#569);
#575=FILL_AREA_STYLE_COLOUR('',#8);
#576=FILL_AREA_STYLE('',(#575));
#577=SURFACE_STYLE_FILL_AREA(#576);
#578=SURFACE_SIDE_STYLE('',(#577));
#579=SURFACE_STYLE_USAGE(.POSITIVE.,#578);
#580=PRESENTATION_STYLE_ASSIGNMENT((#579));
#581=STYLED_ITEM('',(#580),#574);
#582=CURVE_STYLE('',#62,POSITIVE_LENGTH_MEASURE(2.E-2),#8);
#583=PRESENTATION_STYLE_ASSIGNMENT((#582));
#584=STYLED_ITEM('',(#583),#574);
#585=CARTESIAN_POINT('',(0.E0,0.E0,0.E0));
#586=DIRECTION('',(0.E0,0.E0,-1.E0));
#587=DIRECTION('',(1.E0,0.E0,0.E0));
#588=AXIS2_PLACEMENT_3D('',#585,#586,#587);
#591=CURVE_STYLE('',#62,POSITIVE_LENGTH_MEASURE(2.E-2),#11);
#592=PRESENTATION_STYLE_ASSIGNMENT((#591));
#593=STYLED_ITEM('',(#592),#590);
#595=CARTESIAN_POINT('',(0.E0,0.E0,0.E0));
#596=DIRECTION('',(0.E0,0.E0,-1.E0));
#597=DIRECTION('',(-1.E0,0.E0,0.E0));
#598=AXIS2_PLACEMENT_3D('',#595,#596,#597);
#601=CURVE_STYLE('',#62,POSITIVE_LENGTH_MEASURE(2.E-2),#11);
#602=PRESENTATION_STYLE_ASSIGNMENT((#601));
#603=STYLED_ITEM('',(#602),#600);
#606=FILL_AREA_STYLE_COLOUR('',#8);
#607=FILL_AREA_STYLE('',(#606));
#608=SURFACE_STYLE_FILL_AREA(#607);
#609=SURFACE_SIDE_STYLE('',(#608));
#610=SURFACE_STYLE_USAGE(.POSITIVE.,#609);
#611=PRESENTATION_STYLE_ASSIGNMENT((#610));
#612=STYLED_ITEM('',(#611),#605);
#613=CURVE_STYLE('',#62,POSITIVE_LENGTH_MEASURE(2.E-2),#8);
#614=PRESENTATION_STYLE_ASSIGNMENT((#613));
#615=STYLED_ITEM('',(#614),#605);
#616=DIRECTION('',(0.E0,0.E0,-1.E0));
#617=VECTOR('',#616,1.E1);
#618=CARTESIAN_POINT('',(0.E0,0.E0,-9.3E1));
#619=LINE('',#618,#617);
#621=CURVE_STYLE('',#62,POSITIVE_LENGTH_MEASURE(2.E-2),#52);
#622=PRESENTATION_STYLE_ASSIGNMENT((#621));
#623=STYLED_ITEM('',(#622),#620);
#624=PRESENTATION_LAYER_ASSIGNMENT('00_AXIS','',(#541,#550));
#625=PRESENTATION_LAYER_ASSIGNMENT('00_CURVES','',(#574,#605));
#626=PRESENTATION_LAYER_ASSIGNMENT('02___PRT_ALL_AXES','',(#541,#550,#620));
#627=PRESENTATION_LAYER_ASSIGNMENT('03___PRT_ALL_CURVES','',(#574,#605));
#628=PRESENTATION_LAYER_ASSIGNMENT('05___PRT_ALL_DTM_CSYS','',(#533));
#629=PRESENTATION_LAYER_ASSIGNMENT('05___PRT_DEF_DTM_CSYS','',(#533));
#630=(LENGTH_UNIT()NAMED_UNIT(*)SI_UNIT(.MILLI.,.METRE.));
#631=DIMENSIONAL_EXPONENTS(0.E0,0.E0,0.E0,0.E0,0.E0,0.E0,0.E0);
#632=(NAMED_UNIT(*)PLANE_ANGLE_UNIT()SI_UNIT($,.RADIAN.));
#633=PLANE_ANGLE_MEASURE_WITH_UNIT(PLANE_ANGLE_MEASURE(1.745329251994E-2),#632);
#634=(CONVERSION_BASED_UNIT('DEGREE',#633)NAMED_UNIT(#631)PLANE_ANGLE_UNIT());
#635=(NAMED_UNIT(*)SI_UNIT($,.STERADIAN.)SOLID_ANGLE_UNIT());
#636=UNCERTAINTY_MEASURE_WITH_UNIT(LENGTH_MEASURE(1.113993336282E-2),#630,
'distance_accuracy_value',
'Maximum model space distance between geometric entities at asserted connectivities');
#637=(GEOMETRIC_REPRESENTATION_CONTEXT(3)GLOBAL_UNCERTAINTY_ASSIGNED_CONTEXT((
#636))GLOBAL_UNIT_ASSIGNED_CONTEXT((#630,#634,#635))REPRESENTATION_CONTEXT
('ID1','3'));
#545=GEOMETRIC_SET('',(#541,#550,#574,#605,#620));
#641=SHAPE_REPRESENTATION_RELATIONSHIP('','',#640,#638);
#642=SHAPE_REPRESENTATION_RELATIONSHIP('','',#640,#639);
#643=MECHANICAL_DESIGN_GEOMETRIC_PRESENTATION_REPRESENTATION('',(#65,#73,#81,
#89,#97,#105,#112,#120,#128,#135,#143,#151,#159,#166,#174,#182,#190,#198,#206,
#214,#222,#229,#236,#243,#251,#259,#474,#499,#521,#56,#536,#544,#553,#562,#572,
#581,#584,#593,#603,#612,#615,#623),#637);
#644=APPLICATION_CONTEXT('automotive_design');
#645=APPLICATION_PROTOCOL_DEFINITION('draft international standard',
'automotive_design',1998,#644);
#646=PRODUCT_DEFINITION_CONTEXT('part definition',#644,'design');
#647=PRODUCT_CONTEXT('',#644,'mechanical');
#648=PRODUCT('30G_D300090A','30G_D300090A','NOT SPECIFIED',(#647));
#649=PRODUCT_DEFINITION_FORMATION_WITH_SPECIFIED_SOURCE('38','LAST_VERSION',
#648,.MADE.);
#653=PRODUCT_TYPE('part','',(#648));
#61=CIRCLE('',#60,1.399999870439E1);
#70=CIRCLE('',#69,1.399999870439E1);
#78=CIRCLE('',#77,1.E0);
#86=CIRCLE('',#85,1.E0);
#94=CIRCLE('',#93,1.5E1);
#102=CIRCLE('',#101,1.5E1);
#117=CIRCLE('',#116,1.5E1);
#125=CIRCLE('',#124,1.5E1);
#140=CIRCLE('',#139,1.4E1);
#148=CIRCLE('',#147,1.4E1);
#156=CIRCLE('',#155,1.4E1);
#171=CIRCLE('',#170,1.E0);
#179=CIRCLE('',#178,1.299999853441E1);
#187=CIRCLE('',#186,1.299999853441E1);
#195=CIRCLE('',#194,3.E0);
#203=CIRCLE('',#202,3.E0);
#211=CIRCLE('',#210,1.E0);
#219=CIRCLE('',#218,1.4E1);
#248=CIRCLE('',#247,3.E0);
#256=CIRCLE('',#255,3.E0);
#297=EDGE_CURVE('',#270,#271,#61,.T.);
#299=EDGE_CURVE('',#271,#270,#70,.T.);
#310=EDGE_CURVE('',#271,#275,#86,.T.);
#312=EDGE_CURVE('',#274,#275,#117,.T.);
#314=EDGE_CURVE('',#270,#274,#78,.T.);
#326=EDGE_CURVE('',#275,#274,#94,.T.);
#338=EDGE_CURVE('',#274,#267,#132,.T.);
#340=EDGE_CURVE('',#266,#267,#102,.T.);
#342=EDGE_CURVE('',#275,#266,#109,.T.);
#354=EDGE_CURVE('',#267,#266,#125,.T.);
#369=EDGE_CURVE('',#262,#263,#140,.T.);
#371=EDGE_CURVE('',#263,#262,#148,.T.);
#381=EDGE_CURVE('',#283,#282,#156,.T.);
#383=EDGE_CURVE('',#282,#262,#163,.T.);
#386=EDGE_CURVE('',#283,#263,#226,.T.);
#396=EDGE_CURVE('',#279,#278,#187,.T.);
#398=EDGE_CURVE('',#278,#282,#211,.T.);
#401=EDGE_CURVE('',#279,#283,#171,.T.);
#411=EDGE_CURVE('',#278,#279,#179,.T.);
#416=EDGE_CURVE('',#290,#291,#195,.T.);
#418=EDGE_CURVE('',#291,#290,#203,.T.);
#430=EDGE_CURVE('',#282,#283,#219,.T.);
#454=EDGE_CURVE('',#290,#286,#233,.T.);
#456=EDGE_CURVE('',#286,#287,#248,.T.);
#458=EDGE_CURVE('',#291,#287,#240,.T.);
#482=EDGE_CURVE('',#287,#286,#256,.T.);
#541=TRIMMED_CURVE('A_2',#540,(PARAMETER_VALUE(0.E0)),(PARAMETER_VALUE(1.E0)),
.T.,.UNSPECIFIED.);
#550=TRIMMED_CURVE('A_4',#549,(PARAMETER_VALUE(0.E0)),(PARAMETER_VALUE(1.E0)),
.T.,.UNSPECIFIED.);
#558=CIRCLE('',#557,9.E0);
#559=TRIMMED_CURVE('',#558,(PARAMETER_VALUE(0.E0)),(PARAMETER_VALUE(1.8E2)),.T.,
.UNSPECIFIED.);
#563=COMPOSITE_CURVE_SEGMENT(.CONTINUOUS.,.T.,#559);
#568=CIRCLE('',#567,9.E0);
#569=TRIMMED_CURVE('',#568,(PARAMETER_VALUE(0.E0)),(PARAMETER_VALUE(1.8E2)),.T.,
.UNSPECIFIED.);
#573=COMPOSITE_CURVE_SEGMENT(.CONTINUOUS.,.T.,#569);
#574=COMPOSITE_CURVE('',(#563,#573),.F.);
#589=CIRCLE('',#588,1.125E1);
#590=TRIMMED_CURVE('',#589,(PARAMETER_VALUE(1.8E2)),(PARAMETER_VALUE(0.E0)),.F.,
.UNSPECIFIED.);
#594=COMPOSITE_CURVE_SEGMENT(.CONTINUOUS.,.T.,#590);
#599=CIRCLE('',#598,1.125E1);
#600=TRIMMED_CURVE('',#599,(PARAMETER_VALUE(1.8E2)),(PARAMETER_VALUE(0.E0)),.F.,
.UNSPECIFIED.);
#604=COMPOSITE_CURVE_SEGMENT(.CONTINUOUS.,.T.,#600);
#605=COMPOSITE_CURVE('',(#594,#604),.F.);
#620=TRIMMED_CURVE('A_15',#619,(PARAMETER_VALUE(0.E0)),(PARAMETER_VALUE(1.E0)),
.T.,.UNSPECIFIED.);
#638=ADVANCED_BREP_SHAPE_REPRESENTATION('',(#523),#637);
#639=GEOMETRICALLY_BOUNDED_SURFACE_SHAPE_REPRESENTATION('',(#545),#637);
#640=SHAPE_REPRESENTATION('',(#533),#637);
#650=PRODUCT_DEFINITION('part definition','',#649,#646);
#651=PRODUCT_DEFINITION_SHAPE('','SHAPE FOR 30G_D300090A.',#650);
#652=SHAPE_DEFINITION_REPRESENTATION(#651,#640);
ENDSEC;
END-ISO-10303-21;
