ISO-10303-21;
HEADER;
FILE_DESCRIPTION((''),'2;1');
FILE_NAME('KT10_F400158A','2006-01-03T',('Pepperl+Fuchs'),('Industriehansa'),
'PRO/ENGINEER BY PARAMETRIC TECHNOLOGY CORPORATION, 2005290',
'PRO/ENGINEER BY PARAMETRIC TECHNOLOGY CORPORATION, 2005290','');
FILE_SCHEMA(('AUTOMOTIVE_DESIGN_CC2 { 1 2 10303 214 -1 1 5 2 }'));
ENDSEC;
DATA;
#1=COLOUR_RGB('',0.E0,0.E0,6.E-1);
#2=COLOUR_RGB('',0.E0,0.E0,8.E-1);
#3=DRAUGHTING_PRE_DEFINED_COLOUR('blue');
#4=COLOUR_RGB('',0.E0,2.2E-1,0.E0);
#5=COLOUR_RGB('',0.E0,4.E-1,0.E0);
#6=COLOUR_RGB('',0.E0,6.E-1,0.E0);
#7=COLOUR_RGB('',0.E0,6.E-1,4.E-1);
#8=COLOUR_RGB('',0.E0,8.E-1,0.E0);
#9=DRAUGHTING_PRE_DEFINED_COLOUR('green');
#10=DRAUGHTING_PRE_DEFINED_COLOUR('cyan');
#11=COLOUR_RGB('',4.E-2,4.E-2,4.E-2);
#12=COLOUR_RGB('',1.26263E-1,1.26263E-1,1.26263E-1);
#13=COLOUR_RGB('',2.E-1,0.E0,0.E0);
#14=COLOUR_RGB('',2.E-1,2.E-1,0.E0);
#15=COLOUR_RGB('',2.E-1,2.E-1,1.E0);
#16=COLOUR_RGB('',2.E-1,1.E0,2.E-1);
#17=COLOUR_RGB('',3.1E-1,5.2E-1,1.4E-1);
#18=COLOUR_RGB('',3.1E-1,1.E0,1.E0);
#19=COLOUR_RGB('',3.58586E-1,3.58586E-1,3.58586E-1);
#20=COLOUR_RGB('',4.E-1,0.E0,0.E0);
#21=COLOUR_RGB('',4.E-1,4.E-1,0.E0);
#22=COLOUR_RGB('',4.E-1,4.E-1,1.E0);
#23=COLOUR_RGB('',4.E-1,1.E0,4.E-1);
#24=COLOUR_RGB('',4.24242E-1,3.1784E-1,1.97123E-1);
#25=COLOUR_RGB('',5.15152E-1,5.15152E-1,5.15152E-1);
#26=COLOUR_RGB('',5.88235E-1,5.88235E-1,5.88235E-1);
#27=COLOUR_RGB('',6.E-1,0.E0,0.E0);
#28=COLOUR_RGB('',6.E-1,6.E-1,0.E0);
#29=COLOUR_RGB('',6.E-1,6.E-1,1.E0);
#30=COLOUR_RGB('',6.E-1,1.E0,6.E-1);
#31=COLOUR_RGB('',6.22737E-1,6.66098E-1,9.84848E-1);
#32=COLOUR_RGB('',6.666666666667E-1,5.058823529412E-1,2.156862745098E-1);
#33=COLOUR_RGB('',6.81818E-1,5.10814E-1,3.16804E-1);
#34=COLOUR_RGB('',7.E-1,1.E0,1.E0);
#35=COLOUR_RGB('',7.0202E-1,7.0202E-1,7.0202E-1);
#36=COLOUR_RGB('',8.E-1,0.E0,0.E0);
#37=COLOUR_RGB('',8.E-1,8.E-1,1.E0);
#38=COLOUR_RGB('',8.E-1,9.2E-1,0.E0);
#39=COLOUR_RGB('',8.E-1,1.E0,8.E-1);
#40=COLOUR_RGB('',8.23232E-1,6.16761E-1,3.82512E-1);
#41=COLOUR_RGB('',8.784E-1,9.49E-1,1.E0);
#42=COLOUR_RGB('',9.E-1,4.1E-1,4.1E-1);
#43=COLOUR_RGB('',9.E-1,6.E-1,4.1E-1);
#44=COLOUR_RGB('',9.84848E-1,9.84848E-1,9.84848E-1);
#45=DRAUGHTING_PRE_DEFINED_COLOUR('red');
#46=DRAUGHTING_PRE_DEFINED_COLOUR('magenta');
#47=COLOUR_RGB('',1.E0,2.E-1,2.E-1);
#48=COLOUR_RGB('',1.E0,4.E-1,4.E-1);
#49=COLOUR_RGB('',1.E0,6.E-1,6.E-1);
#50=COLOUR_RGB('',1.E0,8.E-1,8.E-1);
#51=DRAUGHTING_PRE_DEFINED_COLOUR('yellow');
#52=COLOUR_RGB('',1.E0,1.E0,3.E-1);
#53=COLOUR_RGB('',1.E0,1.E0,5.E-1);
#54=DRAUGHTING_PRE_DEFINED_COLOUR('white');
#56=CARTESIAN_POINT('',(0.E0,0.E0,-3.058664432842E-14));
#57=DIRECTION('',(0.E0,0.E0,1.E0));
#58=DIRECTION('',(-1.E0,0.E0,0.E0));
#59=AXIS2_PLACEMENT_3D('',#56,#57,#58);
#61=DRAUGHTING_PRE_DEFINED_CURVE_FONT('continuous');
#62=CURVE_STYLE('',#61,POSITIVE_LENGTH_MEASURE(2.E-2),#7);
#63=PRESENTATION_STYLE_ASSIGNMENT((#62));
#64=STYLED_ITEM('',(#63),#60);
#65=CARTESIAN_POINT('',(0.E0,0.E0,-3.058664432842E-14));
#66=DIRECTION('',(0.E0,0.E0,1.E0));
#67=DIRECTION('',(1.E0,0.E0,0.E0));
#68=AXIS2_PLACEMENT_3D('',#65,#66,#67);
#70=CURVE_STYLE('',#61,POSITIVE_LENGTH_MEASURE(2.E-2),#7);
#71=PRESENTATION_STYLE_ASSIGNMENT((#70));
#72=STYLED_ITEM('',(#71),#69);
#73=CARTESIAN_POINT('',(-1.5E0,0.E0,-5.E-1));
#74=DIRECTION('',(0.E0,-1.E0,0.E0));
#75=DIRECTION('',(0.E0,0.E0,1.E0));
#76=AXIS2_PLACEMENT_3D('',#73,#74,#75);
#78=CURVE_STYLE('',#61,POSITIVE_LENGTH_MEASURE(2.E-2),#7);
#79=PRESENTATION_STYLE_ASSIGNMENT((#78));
#80=STYLED_ITEM('',(#79),#77);
#81=CARTESIAN_POINT('',(1.5E0,0.E0,-5.E-1));
#82=DIRECTION('',(0.E0,1.E0,0.E0));
#83=DIRECTION('',(0.E0,0.E0,1.E0));
#84=AXIS2_PLACEMENT_3D('',#81,#82,#83);
#86=CURVE_STYLE('',#61,POSITIVE_LENGTH_MEASURE(2.E-2),#7);
#87=PRESENTATION_STYLE_ASSIGNMENT((#86));
#88=STYLED_ITEM('',(#87),#85);
#89=CARTESIAN_POINT('',(0.E0,0.E0,-2.45E1));
#90=DIRECTION('',(0.E0,0.E0,-1.E0));
#91=DIRECTION('',(-1.E0,0.E0,0.E0));
#92=AXIS2_PLACEMENT_3D('',#89,#90,#91);
#94=CURVE_STYLE('',#61,POSITIVE_LENGTH_MEASURE(2.E-2),#7);
#95=PRESENTATION_STYLE_ASSIGNMENT((#94));
#96=STYLED_ITEM('',(#95),#93);
#97=DIRECTION('',(0.E0,1.851314440578E-11,-1.E0));
#98=VECTOR('',#97,2.4E1);
#99=CARTESIAN_POINT('',(2.E0,-9.925861676097E-11,-5.E-1));
#100=LINE('',#99,#98);
#101=CURVE_STYLE('',#61,POSITIVE_LENGTH_MEASURE(2.E-2),#7);
#102=PRESENTATION_STYLE_ASSIGNMENT((#101));
#103=STYLED_ITEM('',(#102),#100);
#104=CARTESIAN_POINT('',(0.E0,0.E0,-5.E-1));
#105=DIRECTION('',(0.E0,0.E0,1.E0));
#106=DIRECTION('',(1.E0,0.E0,0.E0));
#107=AXIS2_PLACEMENT_3D('',#104,#105,#106);
#109=CURVE_STYLE('',#61,POSITIVE_LENGTH_MEASURE(2.E-2),#7);
#110=PRESENTATION_STYLE_ASSIGNMENT((#109));
#111=STYLED_ITEM('',(#110),#108);
#112=CARTESIAN_POINT('',(-1.5E0,0.E0,-2.45E1));
#113=DIRECTION('',(0.E0,1.E0,0.E0));
#114=DIRECTION('',(0.E0,0.E0,-1.E0));
#115=AXIS2_PLACEMENT_3D('',#112,#113,#114);
#117=CURVE_STYLE('',#61,POSITIVE_LENGTH_MEASURE(2.E-2),#7);
#118=PRESENTATION_STYLE_ASSIGNMENT((#117));
#119=STYLED_ITEM('',(#118),#116);
#120=CARTESIAN_POINT('',(0.E0,0.E0,-2.5E1));
#121=DIRECTION('',(0.E0,0.E0,-1.E0));
#122=DIRECTION('',(1.E0,0.E0,0.E0));
#123=AXIS2_PLACEMENT_3D('',#120,#121,#122);
#125=CURVE_STYLE('',#61,POSITIVE_LENGTH_MEASURE(2.E-2),#7);
#126=PRESENTATION_STYLE_ASSIGNMENT((#125));
#127=STYLED_ITEM('',(#126),#124);
#128=CARTESIAN_POINT('',(0.E0,0.E0,-2.5E1));
#129=DIRECTION('',(0.E0,0.E0,-1.E0));
#130=DIRECTION('',(-1.E0,0.E0,0.E0));
#131=AXIS2_PLACEMENT_3D('',#128,#129,#130);
#133=CURVE_STYLE('',#61,POSITIVE_LENGTH_MEASURE(2.E-2),#7);
#134=PRESENTATION_STYLE_ASSIGNMENT((#133));
#135=STYLED_ITEM('',(#134),#132);
#136=CARTESIAN_POINT('',(0.E0,0.E0,-2.5E1));
#137=DIRECTION('',(0.E0,0.E0,-1.E0));
#138=DIRECTION('',(1.E0,0.E0,0.E0));
#139=AXIS2_PLACEMENT_3D('',#136,#137,#138);
#141=CURVE_STYLE('',#61,POSITIVE_LENGTH_MEASURE(2.E-2),#7);
#142=PRESENTATION_STYLE_ASSIGNMENT((#141));
#143=STYLED_ITEM('',(#142),#140);
#144=CARTESIAN_POINT('',(0.E0,0.E0,-2.5E1));
#145=DIRECTION('',(0.E0,0.E0,-1.E0));
#146=DIRECTION('',(-1.E0,0.E0,0.E0));
#147=AXIS2_PLACEMENT_3D('',#144,#145,#146);
#149=CURVE_STYLE('',#61,POSITIVE_LENGTH_MEASURE(2.E-2),#7);
#150=PRESENTATION_STYLE_ASSIGNMENT((#149));
#151=STYLED_ITEM('',(#150),#148);
#152=CARTESIAN_POINT('',(1.5E0,0.E0,-2.45E1));
#153=DIRECTION('',(0.E0,-1.E0,0.E0));
#154=DIRECTION('',(0.E0,0.E0,-1.E0));
#155=AXIS2_PLACEMENT_3D('',#152,#153,#154);
#157=CURVE_STYLE('',#61,POSITIVE_LENGTH_MEASURE(2.E-2),#7);
#158=PRESENTATION_STYLE_ASSIGNMENT((#157));
#159=STYLED_ITEM('',(#158),#156);
#160=CARTESIAN_POINT('',(0.E0,0.E0,-2.45E1));
#161=DIRECTION('',(0.E0,0.E0,-1.E0));
#162=DIRECTION('',(1.E0,0.E0,0.E0));
#163=AXIS2_PLACEMENT_3D('',#160,#161,#162);
#165=CURVE_STYLE('',#61,POSITIVE_LENGTH_MEASURE(2.E-2),#7);
#166=PRESENTATION_STYLE_ASSIGNMENT((#165));
#167=STYLED_ITEM('',(#166),#164);
#168=DIRECTION('',(0.E0,-1.851314298621E-11,-1.E0));
#169=VECTOR('',#168,2.4E1);
#170=CARTESIAN_POINT('',(-2.E0,9.925874981968E-11,-5.E-1));
#171=LINE('',#170,#169);
#172=CURVE_STYLE('',#61,POSITIVE_LENGTH_MEASURE(2.E-2),#7);
#173=PRESENTATION_STYLE_ASSIGNMENT((#172));
#174=STYLED_ITEM('',(#173),#171);
#175=CARTESIAN_POINT('',(0.E0,0.E0,-5.E-1));
#176=DIRECTION('',(0.E0,0.E0,1.E0));
#177=DIRECTION('',(-1.E0,0.E0,0.E0));
#178=AXIS2_PLACEMENT_3D('',#175,#176,#177);
#180=CURVE_STYLE('',#61,POSITIVE_LENGTH_MEASURE(2.E-2),#7);
#181=PRESENTATION_STYLE_ASSIGNMENT((#180));
#182=STYLED_ITEM('',(#181),#179);
#183=DIRECTION('',(0.E0,0.E0,-1.E0));
#184=VECTOR('',#183,1.E1);
#185=CARTESIAN_POINT('',(1.2E0,0.E0,-2.5E1));
#186=LINE('',#185,#184);
#187=CURVE_STYLE('',#61,POSITIVE_LENGTH_MEASURE(2.E-2),#7);
#188=PRESENTATION_STYLE_ASSIGNMENT((#187));
#189=STYLED_ITEM('',(#188),#186);
#190=DIRECTION('',(0.E0,0.E0,-1.E0));
#191=VECTOR('',#190,1.E1);
#192=CARTESIAN_POINT('',(-1.2E0,0.E0,-2.5E1));
#193=LINE('',#192,#191);
#194=CURVE_STYLE('',#61,POSITIVE_LENGTH_MEASURE(2.E-2),#7);
#195=PRESENTATION_STYLE_ASSIGNMENT((#194));
#196=STYLED_ITEM('',(#195),#193);
#197=CARTESIAN_POINT('',(0.E0,0.E0,-3.5E1));
#198=DIRECTION('',(0.E0,0.E0,-1.E0));
#199=DIRECTION('',(1.E0,0.E0,0.E0));
#200=AXIS2_PLACEMENT_3D('',#197,#198,#199);
#202=CURVE_STYLE('',#61,POSITIVE_LENGTH_MEASURE(2.E-2),#7);
#203=PRESENTATION_STYLE_ASSIGNMENT((#202));
#204=STYLED_ITEM('',(#203),#201);
#205=CARTESIAN_POINT('',(0.E0,0.E0,-3.5E1));
#206=DIRECTION('',(0.E0,0.E0,-1.E0));
#207=DIRECTION('',(-1.E0,0.E0,0.E0));
#208=AXIS2_PLACEMENT_3D('',#205,#206,#207);
#210=CURVE_STYLE('',#61,POSITIVE_LENGTH_MEASURE(2.E-2),#7);
#211=PRESENTATION_STYLE_ASSIGNMENT((#210));
#212=STYLED_ITEM('',(#211),#209);
#213=CARTESIAN_POINT('',(-1.499999825050E0,0.E0,-3.058664432842E-14));
#214=CARTESIAN_POINT('',(1.499999825050E0,0.E0,-3.058664432842E-14));
#215=VERTEX_POINT('',#213);
#216=VERTEX_POINT('',#214);
#217=CARTESIAN_POINT('',(-2.E0,0.E0,-5.E-1));
#218=CARTESIAN_POINT('',(2.E0,0.E0,-5.E-1));
#219=VERTEX_POINT('',#217);
#220=VERTEX_POINT('',#218);
#221=CARTESIAN_POINT('',(1.499999825050E0,0.E0,-2.5E1));
#222=CARTESIAN_POINT('',(-1.499999825050E0,0.E0,-2.5E1));
#223=VERTEX_POINT('',#221);
#224=VERTEX_POINT('',#222);
#225=CARTESIAN_POINT('',(2.E0,0.E0,-2.45E1));
#226=CARTESIAN_POINT('',(-2.E0,0.E0,-2.45E1));
#227=VERTEX_POINT('',#225);
#228=VERTEX_POINT('',#226);
#229=CARTESIAN_POINT('',(1.2E0,0.E0,-3.5E1));
#230=CARTESIAN_POINT('',(-1.2E0,0.E0,-3.5E1));
#231=VERTEX_POINT('',#229);
#232=VERTEX_POINT('',#230);
#233=CARTESIAN_POINT('',(1.2E0,0.E0,-2.5E1));
#234=VERTEX_POINT('',#233);
#235=CARTESIAN_POINT('',(-1.2E0,0.E0,-2.5E1));
#236=VERTEX_POINT('',#235);
#237=CARTESIAN_POINT('',(0.E0,0.E0,0.E0));
#238=DIRECTION('',(0.E0,0.E0,1.E0));
#239=DIRECTION('',(1.E0,0.E0,0.E0));
#240=AXIS2_PLACEMENT_3D('',#237,#238,#239);
#241=PLANE('',#240);
#243=ORIENTED_EDGE('',*,*,#242,.F.);
#245=ORIENTED_EDGE('',*,*,#244,.F.);
#246=EDGE_LOOP('',(#243,#245));
#247=FACE_OUTER_BOUND('',#246,.F.);
#248=ADVANCED_FACE('',(#247),#241,.T.);
#249=CARTESIAN_POINT('',(0.E0,0.E0,-5.E-1));
#250=DIRECTION('',(0.E0,0.E0,1.E0));
#251=DIRECTION('',(-9.998058405579E-1,1.970485184863E-2,0.E0));
#252=AXIS2_PLACEMENT_3D('',#249,#250,#251);
#253=TOROIDAL_SURFACE('',#252,1.5E0,5.E-1);
#254=ORIENTED_EDGE('',*,*,#242,.T.);
#256=ORIENTED_EDGE('',*,*,#255,.T.);
#258=ORIENTED_EDGE('',*,*,#257,.F.);
#260=ORIENTED_EDGE('',*,*,#259,.F.);
#261=EDGE_LOOP('',(#254,#256,#258,#260));
#262=FACE_OUTER_BOUND('',#261,.F.);
#263=ADVANCED_FACE('',(#262),#253,.T.);
#264=CARTESIAN_POINT('',(0.E0,0.E0,-5.E-1));
#265=DIRECTION('',(0.E0,0.E0,1.E0));
#266=DIRECTION('',(9.998058405579E-1,-1.970485184863E-2,0.E0));
#267=AXIS2_PLACEMENT_3D('',#264,#265,#266);
#268=TOROIDAL_SURFACE('',#267,1.5E0,5.E-1);
#269=ORIENTED_EDGE('',*,*,#244,.T.);
#270=ORIENTED_EDGE('',*,*,#259,.T.);
#272=ORIENTED_EDGE('',*,*,#271,.F.);
#273=ORIENTED_EDGE('',*,*,#255,.F.);
#274=EDGE_LOOP('',(#269,#270,#272,#273));
#275=FACE_OUTER_BOUND('',#274,.F.);
#276=ADVANCED_FACE('',(#275),#268,.T.);
#277=CARTESIAN_POINT('',(0.E0,0.E0,0.E0));
#278=DIRECTION('',(0.E0,0.E0,1.E0));
#279=DIRECTION('',(1.E0,0.E0,0.E0));
#280=AXIS2_PLACEMENT_3D('',#277,#278,#279);
#281=CYLINDRICAL_SURFACE('',#280,2.E0);
#283=ORIENTED_EDGE('',*,*,#282,.T.);
#285=ORIENTED_EDGE('',*,*,#284,.F.);
#286=ORIENTED_EDGE('',*,*,#271,.T.);
#288=ORIENTED_EDGE('',*,*,#287,.T.);
#289=EDGE_LOOP('',(#283,#285,#286,#288));
#290=FACE_OUTER_BOUND('',#289,.F.);
#291=ADVANCED_FACE('',(#290),#281,.T.);
#292=CARTESIAN_POINT('',(0.E0,0.E0,-2.45E1));
#293=DIRECTION('',(0.E0,0.E0,1.E0));
#294=DIRECTION('',(-9.996082033599E-1,-2.798999420601E-2,0.E0));
#295=AXIS2_PLACEMENT_3D('',#292,#293,#294);
#296=TOROIDAL_SURFACE('',#295,1.5E0,5.E-1);
#298=ORIENTED_EDGE('',*,*,#297,.T.);
#300=ORIENTED_EDGE('',*,*,#299,.T.);
#301=ORIENTED_EDGE('',*,*,#282,.F.);
#303=ORIENTED_EDGE('',*,*,#302,.F.);
#304=EDGE_LOOP('',(#298,#300,#301,#303));
#305=FACE_OUTER_BOUND('',#304,.F.);
#306=ADVANCED_FACE('',(#305),#296,.T.);
#307=CARTESIAN_POINT('',(0.E0,0.E0,-2.5E1));
#308=DIRECTION('',(0.E0,0.E0,1.E0));
#309=DIRECTION('',(1.E0,0.E0,0.E0));
#310=AXIS2_PLACEMENT_3D('',#307,#308,#309);
#311=PLANE('',#310);
#313=ORIENTED_EDGE('',*,*,#312,.F.);
#314=ORIENTED_EDGE('',*,*,#297,.F.);
#315=EDGE_LOOP('',(#313,#314));
#316=FACE_OUTER_BOUND('',#315,.F.);
#318=ORIENTED_EDGE('',*,*,#317,.T.);
#320=ORIENTED_EDGE('',*,*,#319,.T.);
#321=EDGE_LOOP('',(#318,#320));
#322=FACE_BOUND('',#321,.F.);
#323=ADVANCED_FACE('',(#316,#322),#311,.F.);
#324=CARTESIAN_POINT('',(0.E0,0.E0,-2.45E1));
#325=DIRECTION('',(0.E0,0.E0,1.E0));
#326=DIRECTION('',(9.996082033599E-1,2.798999420601E-2,0.E0));
#327=AXIS2_PLACEMENT_3D('',#324,#325,#326);
#328=TOROIDAL_SURFACE('',#327,1.5E0,5.E-1);
#329=ORIENTED_EDGE('',*,*,#312,.T.);
#330=ORIENTED_EDGE('',*,*,#302,.T.);
#332=ORIENTED_EDGE('',*,*,#331,.F.);
#333=ORIENTED_EDGE('',*,*,#299,.F.);
#334=EDGE_LOOP('',(#329,#330,#332,#333));
#335=FACE_OUTER_BOUND('',#334,.F.);
#336=ADVANCED_FACE('',(#335),#328,.T.);
#337=CARTESIAN_POINT('',(0.E0,0.E0,0.E0));
#338=DIRECTION('',(0.E0,0.E0,1.E0));
#339=DIRECTION('',(1.E0,0.E0,0.E0));
#340=AXIS2_PLACEMENT_3D('',#337,#338,#339);
#341=CYLINDRICAL_SURFACE('',#340,2.E0);
#342=ORIENTED_EDGE('',*,*,#331,.T.);
#343=ORIENTED_EDGE('',*,*,#287,.F.);
#344=ORIENTED_EDGE('',*,*,#257,.T.);
#345=ORIENTED_EDGE('',*,*,#284,.T.);
#346=EDGE_LOOP('',(#342,#343,#344,#345));
#347=FACE_OUTER_BOUND('',#346,.F.);
#348=ADVANCED_FACE('',(#347),#341,.T.);
#349=CARTESIAN_POINT('',(0.E0,0.E0,-2.5E1));
#350=DIRECTION('',(0.E0,0.E0,-1.E0));
#351=DIRECTION('',(1.E0,0.E0,0.E0));
#352=AXIS2_PLACEMENT_3D('',#349,#350,#351);
#353=CYLINDRICAL_SURFACE('',#352,1.2E0);
#355=ORIENTED_EDGE('',*,*,#354,.T.);
#357=ORIENTED_EDGE('',*,*,#356,.T.);
#359=ORIENTED_EDGE('',*,*,#358,.F.);
#360=ORIENTED_EDGE('',*,*,#317,.F.);
#361=EDGE_LOOP('',(#355,#357,#359,#360));
#362=FACE_OUTER_BOUND('',#361,.F.);
#363=ADVANCED_FACE('',(#362),#353,.T.);
#364=FILL_AREA_STYLE_COLOUR('',#26);
#365=FILL_AREA_STYLE('',(#364));
#366=SURFACE_STYLE_FILL_AREA(#365);
#367=SURFACE_SIDE_STYLE('',(#366));
#368=SURFACE_STYLE_USAGE(.POSITIVE.,#367);
#369=FILL_AREA_STYLE_COLOUR('',#7);
#370=FILL_AREA_STYLE('',(#369));
#371=SURFACE_STYLE_FILL_AREA(#370);
#372=SURFACE_SIDE_STYLE('',(#371));
#373=SURFACE_STYLE_USAGE(.NEGATIVE.,#372);
#374=PRESENTATION_STYLE_ASSIGNMENT((#368,#373));
#375=OVER_RIDING_STYLED_ITEM('',(#374),#363,#55);
#376=CARTESIAN_POINT('',(0.E0,0.E0,-2.5E1));
#377=DIRECTION('',(0.E0,0.E0,-1.E0));
#378=DIRECTION('',(1.E0,0.E0,0.E0));
#379=AXIS2_PLACEMENT_3D('',#376,#377,#378);
#380=CYLINDRICAL_SURFACE('',#379,1.2E0);
#381=ORIENTED_EDGE('',*,*,#354,.F.);
#382=ORIENTED_EDGE('',*,*,#319,.F.);
#383=ORIENTED_EDGE('',*,*,#358,.T.);
#385=ORIENTED_EDGE('',*,*,#384,.T.);
#386=EDGE_LOOP('',(#381,#382,#383,#385));
#387=FACE_OUTER_BOUND('',#386,.F.);
#388=ADVANCED_FACE('',(#387),#380,.T.);
#389=FILL_AREA_STYLE_COLOUR('',#26);
#390=FILL_AREA_STYLE('',(#389));
#391=SURFACE_STYLE_FILL_AREA(#390);
#392=SURFACE_SIDE_STYLE('',(#391));
#393=SURFACE_STYLE_USAGE(.POSITIVE.,#392);
#394=FILL_AREA_STYLE_COLOUR('',#7);
#395=FILL_AREA_STYLE('',(#394));
#396=SURFACE_STYLE_FILL_AREA(#395);
#397=SURFACE_SIDE_STYLE('',(#396));
#398=SURFACE_STYLE_USAGE(.NEGATIVE.,#397);
#399=PRESENTATION_STYLE_ASSIGNMENT((#393,#398));
#400=OVER_RIDING_STYLED_ITEM('',(#399),#388,#55);
#401=CARTESIAN_POINT('',(0.E0,0.E0,-3.5E1));
#402=DIRECTION('',(0.E0,0.E0,-1.E0));
#403=DIRECTION('',(1.E0,0.E0,0.E0));
#404=AXIS2_PLACEMENT_3D('',#401,#402,#403);
#405=PLANE('',#404);
#406=ORIENTED_EDGE('',*,*,#356,.F.);
#407=ORIENTED_EDGE('',*,*,#384,.F.);
#408=EDGE_LOOP('',(#406,#407));
#409=FACE_OUTER_BOUND('',#408,.F.);
#410=ADVANCED_FACE('',(#409),#405,.T.);
#411=FILL_AREA_STYLE_COLOUR('',#26);
#412=FILL_AREA_STYLE('',(#411));
#413=SURFACE_STYLE_FILL_AREA(#412);
#414=SURFACE_SIDE_STYLE('',(#413));
#415=SURFACE_STYLE_USAGE(.POSITIVE.,#414);
#416=FILL_AREA_STYLE_COLOUR('',#7);
#417=FILL_AREA_STYLE('',(#416));
#418=SURFACE_STYLE_FILL_AREA(#417);
#419=SURFACE_SIDE_STYLE('',(#418));
#420=SURFACE_STYLE_USAGE(.NEGATIVE.,#419);
#421=PRESENTATION_STYLE_ASSIGNMENT((#415,#420));
#422=OVER_RIDING_STYLED_ITEM('',(#421),#410,#55);
#423=CLOSED_SHELL('',(#248,#263,#276,#291,#306,#323,#336,#348,#363,#388,#410));
#424=MANIFOLD_SOLID_BREP('',#423);
#425=FILL_AREA_STYLE_COLOUR('',#7);
#426=FILL_AREA_STYLE('',(#425));
#427=SURFACE_STYLE_FILL_AREA(#426);
#428=SURFACE_SIDE_STYLE('',(#427));
#429=SURFACE_STYLE_USAGE(.BOTH.,#428);
#430=PRESENTATION_STYLE_ASSIGNMENT((#429));
#55=STYLED_ITEM('',(#430),#424);
#431=CARTESIAN_POINT('',(0.E0,0.E0,0.E0));
#432=DIRECTION('',(0.E0,0.E0,1.E0));
#433=DIRECTION('',(1.E0,0.E0,0.E0));
#434=AXIS2_PLACEMENT_3D('PRT_CSYS_DEF',#431,#432,#433);
#435=CURVE_STYLE('',#61,POSITIVE_LENGTH_MEASURE(2.E-2),#32);
#436=PRESENTATION_STYLE_ASSIGNMENT((#435));
#437=STYLED_ITEM('',(#436),#434);
#438=DIRECTION('',(0.E0,0.E0,1.E0));
#439=VECTOR('',#438,2.4E1);
#440=CARTESIAN_POINT('',(0.E0,0.E0,-2.45E1));
#441=LINE('',#440,#439);
#443=CURVE_STYLE('',#61,POSITIVE_LENGTH_MEASURE(2.E-2),#51);
#444=PRESENTATION_STYLE_ASSIGNMENT((#443));
#445=STYLED_ITEM('',(#444),#442);
#447=DIRECTION('',(0.E0,0.E0,-1.E0));
#448=VECTOR('',#447,1.E1);
#449=CARTESIAN_POINT('',(0.E0,0.E0,-2.5E1));
#450=LINE('',#449,#448);
#452=CURVE_STYLE('',#61,POSITIVE_LENGTH_MEASURE(2.E-2),#51);
#453=PRESENTATION_STYLE_ASSIGNMENT((#452));
#454=STYLED_ITEM('',(#453),#451);
#455=CARTESIAN_POINT('',(0.E0,0.E0,0.E0));
#456=DIRECTION('',(0.E0,0.E0,1.E0));
#457=DIRECTION('',(1.E0,0.E0,0.E0));
#458=AXIS2_PLACEMENT_3D('',#455,#456,#457);
#461=CURVE_STYLE('',#61,POSITIVE_LENGTH_MEASURE(2.E-2),#10);
#462=PRESENTATION_STYLE_ASSIGNMENT((#461));
#463=STYLED_ITEM('',(#462),#460);
#465=CARTESIAN_POINT('',(0.E0,0.E0,0.E0));
#466=DIRECTION('',(0.E0,0.E0,1.E0));
#467=DIRECTION('',(-1.E0,0.E0,0.E0));
#468=AXIS2_PLACEMENT_3D('',#465,#466,#467);
#471=CURVE_STYLE('',#61,POSITIVE_LENGTH_MEASURE(2.E-2),#10);
#472=PRESENTATION_STYLE_ASSIGNMENT((#471));
#473=STYLED_ITEM('',(#472),#470);
#476=FILL_AREA_STYLE_COLOUR('',#7);
#477=FILL_AREA_STYLE('',(#476));
#478=SURFACE_STYLE_FILL_AREA(#477);
#479=SURFACE_SIDE_STYLE('',(#478));
#480=SURFACE_STYLE_USAGE(.POSITIVE.,#479);
#481=PRESENTATION_STYLE_ASSIGNMENT((#480));
#482=STYLED_ITEM('',(#481),#475);
#483=CURVE_STYLE('',#61,POSITIVE_LENGTH_MEASURE(2.E-2),#7);
#484=PRESENTATION_STYLE_ASSIGNMENT((#483));
#485=STYLED_ITEM('',(#484),#475);
#486=PRESENTATION_LAYER_ASSIGNMENT('00_AXIS','',(#442,#451));
#487=PRESENTATION_LAYER_ASSIGNMENT('00_CURVES','',(#475));
#488=PRESENTATION_LAYER_ASSIGNMENT('02___PRT_ALL_AXES','',(#442,#451));
#489=PRESENTATION_LAYER_ASSIGNMENT('03___PRT_ALL_CURVES','',(#475));
#490=PRESENTATION_LAYER_ASSIGNMENT('05___PRT_ALL_DTM_CSYS','',(#434));
#491=PRESENTATION_LAYER_ASSIGNMENT('05___PRT_DEF_DTM_CSYS','',(#434));
#492=(LENGTH_UNIT()NAMED_UNIT(*)SI_UNIT(.MILLI.,.METRE.));
#493=DIMENSIONAL_EXPONENTS(0.E0,0.E0,0.E0,0.E0,0.E0,0.E0,0.E0);
#494=(NAMED_UNIT(*)PLANE_ANGLE_UNIT()SI_UNIT($,.RADIAN.));
#495=PLANE_ANGLE_MEASURE_WITH_UNIT(PLANE_ANGLE_MEASURE(1.745329251994E-2),#494);
#496=(CONVERSION_BASED_UNIT('DEGREE',#495)NAMED_UNIT(#493)PLANE_ANGLE_UNIT());
#497=(NAMED_UNIT(*)SI_UNIT($,.STERADIAN.)SOLID_ANGLE_UNIT());
#498=UNCERTAINTY_MEASURE_WITH_UNIT(LENGTH_MEASURE(3.545277763464E-3),#492,
'distance_accuracy_value',
'Maximum model space distance between geometric entities at asserted connectivities');
#499=(GEOMETRIC_REPRESENTATION_CONTEXT(3)GLOBAL_UNCERTAINTY_ASSIGNED_CONTEXT((
#498))GLOBAL_UNIT_ASSIGNED_CONTEXT((#492,#496,#497))REPRESENTATION_CONTEXT
('ID1','3'));
#446=GEOMETRIC_SET('',(#442,#451,#475));
#503=SHAPE_REPRESENTATION_RELATIONSHIP('','',#502,#500);
#504=SHAPE_REPRESENTATION_RELATIONSHIP('','',#502,#501);
#505=MECHANICAL_DESIGN_GEOMETRIC_PRESENTATION_REPRESENTATION('',(#64,#72,#80,
#88,#96,#103,#111,#119,#127,#135,#143,#151,#159,#167,#174,#182,#189,#196,#204,
#212,#375,#400,#422,#55,#437,#445,#454,#463,#473,#482,#485),#499);
#506=APPLICATION_CONTEXT('automotive_design');
#507=APPLICATION_PROTOCOL_DEFINITION('draft international standard',
'automotive_design',1998,#506);
#508=PRODUCT_DEFINITION_CONTEXT('part definition',#506,'design');
#509=PRODUCT_CONTEXT('',#506,'mechanical');
#510=PRODUCT('KT10_F400158A','KT10_F400158A','NOT SPECIFIED',(#509));
#511=PRODUCT_DEFINITION_FORMATION_WITH_SPECIFIED_SOURCE('3','LAST_VERSION',#510,
.MADE.);
#515=PRODUCT_TYPE('part','',(#510));
#60=CIRCLE('',#59,1.499999825050E0);
#69=CIRCLE('',#68,1.499999825050E0);
#77=CIRCLE('',#76,5.E-1);
#85=CIRCLE('',#84,5.E-1);
#93=CIRCLE('',#92,2.E0);
#108=CIRCLE('',#107,2.E0);
#116=CIRCLE('',#115,5.E-1);
#124=CIRCLE('',#123,1.499999825050E0);
#132=CIRCLE('',#131,1.499999825050E0);
#140=CIRCLE('',#139,1.2E0);
#148=CIRCLE('',#147,1.2E0);
#156=CIRCLE('',#155,5.E-1);
#164=CIRCLE('',#163,2.E0);
#179=CIRCLE('',#178,2.E0);
#201=CIRCLE('',#200,1.2E0);
#209=CIRCLE('',#208,1.2E0);
#242=EDGE_CURVE('',#215,#216,#60,.T.);
#244=EDGE_CURVE('',#216,#215,#69,.T.);
#255=EDGE_CURVE('',#216,#220,#85,.T.);
#257=EDGE_CURVE('',#219,#220,#179,.T.);
#259=EDGE_CURVE('',#215,#219,#77,.T.);
#271=EDGE_CURVE('',#220,#219,#108,.T.);
#282=EDGE_CURVE('',#228,#227,#93,.T.);
#284=EDGE_CURVE('',#220,#227,#100,.T.);
#287=EDGE_CURVE('',#219,#228,#171,.T.);
#297=EDGE_CURVE('',#224,#223,#132,.T.);
#299=EDGE_CURVE('',#223,#227,#156,.T.);
#302=EDGE_CURVE('',#224,#228,#116,.T.);
#312=EDGE_CURVE('',#223,#224,#124,.T.);
#317=EDGE_CURVE('',#234,#236,#140,.T.);
#319=EDGE_CURVE('',#236,#234,#148,.T.);
#331=EDGE_CURVE('',#227,#228,#164,.T.);
#354=EDGE_CURVE('',#234,#231,#186,.T.);
#356=EDGE_CURVE('',#231,#232,#201,.T.);
#358=EDGE_CURVE('',#236,#232,#193,.T.);
#384=EDGE_CURVE('',#232,#231,#209,.T.);
#442=TRIMMED_CURVE('A_2',#441,(PARAMETER_VALUE(0.E0)),(PARAMETER_VALUE(1.E0)),
.T.,.UNSPECIFIED.);
#451=TRIMMED_CURVE('A_12',#450,(PARAMETER_VALUE(0.E0)),(PARAMETER_VALUE(1.E0)),
.T.,.UNSPECIFIED.);
#459=CIRCLE('',#458,1.25E0);
#460=TRIMMED_CURVE('',#459,(PARAMETER_VALUE(0.E0)),(PARAMETER_VALUE(1.8E2)),.T.,
.UNSPECIFIED.);
#464=COMPOSITE_CURVE_SEGMENT(.CONTINUOUS.,.T.,#460);
#469=CIRCLE('',#468,1.25E0);
#470=TRIMMED_CURVE('',#469,(PARAMETER_VALUE(0.E0)),(PARAMETER_VALUE(1.8E2)),.T.,
.UNSPECIFIED.);
#474=COMPOSITE_CURVE_SEGMENT(.CONTINUOUS.,.T.,#470);
#475=COMPOSITE_CURVE('',(#464,#474),.F.);
#500=ADVANCED_BREP_SHAPE_REPRESENTATION('',(#424),#499);
#501=GEOMETRICALLY_BOUNDED_SURFACE_SHAPE_REPRESENTATION('',(#446),#499);
#502=SHAPE_REPRESENTATION('',(#434),#499);
#512=PRODUCT_DEFINITION('part definition','',#511,#508);
#513=PRODUCT_DEFINITION_SHAPE('','SHAPE FOR KT10_F400158A.',#512);
#514=SHAPE_DEFINITION_REPRESENTATION(#513,#502);
ENDSEC;
END-ISO-10303-21;
