ISO-10303-21;
HEADER;
FILE_DESCRIPTION((''),'2;1');
FILE_NAME('CAD0696B','2014-01-03T',('creinig-se'),(''),
'PRO/ENGINEER BY PARAMETRIC TECHNOLOGY CORPORATION, 2013050',
'PRO/ENGINEER BY PARAMETRIC TECHNOLOGY CORPORATION, 2013050','');
FILE_SCHEMA(('CONFIG_CONTROL_DESIGN'));
ENDSEC;
DATA;
#42=CARTESIAN_POINT('',(0.E0,-8.499999999998E0,0.E0));
#43=DIRECTION('',(0.E0,1.E0,0.E0));
#44=DIRECTION('',(9.998282472282E-1,0.E0,-1.853310671588E-2));
#45=AXIS2_PLACEMENT_3D('',#42,#43,#44);
#47=DRAUGHTING_PRE_DEFINED_CURVE_FONT('continuous');
#48=CURVE_STYLE('',#47,POSITIVE_LENGTH_MEASURE(2.E-2),#5);
#49=PRESENTATION_STYLE_ASSIGNMENT((#48));
#50=STYLED_ITEM('',(#49),#46);
#51=CARTESIAN_POINT('',(0.E0,-8.499999999998E0,0.E0));
#52=DIRECTION('',(0.E0,1.E0,0.E0));
#53=DIRECTION('',(-9.998282472282E-1,0.E0,1.853310671588E-2));
#54=AXIS2_PLACEMENT_3D('',#51,#52,#53);
#56=CURVE_STYLE('',#47,POSITIVE_LENGTH_MEASURE(2.E-2),#5);
#57=PRESENTATION_STYLE_ASSIGNMENT((#56));
#58=STYLED_ITEM('',(#57),#55);
#59=CARTESIAN_POINT('',(0.E0,-8.499999999998E0,0.E0));
#60=DIRECTION('',(0.E0,-1.E0,0.E0));
#61=DIRECTION('',(9.998282472282E-1,0.E0,-1.853310671588E-2));
#62=AXIS2_PLACEMENT_3D('',#59,#60,#61);
#64=CURVE_STYLE('',#47,POSITIVE_LENGTH_MEASURE(2.E-2),#5);
#65=PRESENTATION_STYLE_ASSIGNMENT((#64));
#66=STYLED_ITEM('',(#65),#63);
#67=CARTESIAN_POINT('',(2.E0,-7.999999999998E0,0.E0));
#68=DIRECTION('',(0.E0,0.E0,1.E0));
#69=DIRECTION('',(-1.427937004195E-7,-1.E0,0.E0));
#70=AXIS2_PLACEMENT_3D('',#67,#68,#69);
#72=CURVE_STYLE('',#47,POSITIVE_LENGTH_MEASURE(2.E-2),#5);
#73=PRESENTATION_STYLE_ASSIGNMENT((#72));
#74=STYLED_ITEM('',(#73),#71);
#75=CARTESIAN_POINT('',(0.E0,-7.999999999998E0,0.E0));
#76=DIRECTION('',(0.E0,1.E0,0.E0));
#77=DIRECTION('',(1.E0,0.E0,0.E0));
#78=AXIS2_PLACEMENT_3D('',#75,#76,#77);
#80=CURVE_STYLE('',#47,POSITIVE_LENGTH_MEASURE(2.E-2),#5);
#81=PRESENTATION_STYLE_ASSIGNMENT((#80));
#82=STYLED_ITEM('',(#81),#79);
#83=CARTESIAN_POINT('',(0.E0,-7.999999999998E0,0.E0));
#84=DIRECTION('',(0.E0,1.E0,0.E0));
#85=DIRECTION('',(9.998282472282E-1,0.E0,-1.853310671588E-2));
#86=AXIS2_PLACEMENT_3D('',#83,#84,#85);
#88=CURVE_STYLE('',#47,POSITIVE_LENGTH_MEASURE(2.E-2),#5);
#89=PRESENTATION_STYLE_ASSIGNMENT((#88));
#90=STYLED_ITEM('',(#89),#87);
#91=CARTESIAN_POINT('',(0.E0,-8.499999999998E0,0.E0));
#92=DIRECTION('',(0.E0,-1.E0,0.E0));
#93=DIRECTION('',(-9.998282472282E-1,0.E0,1.853310671588E-2));
#94=AXIS2_PLACEMENT_3D('',#91,#92,#93);
#96=CURVE_STYLE('',#47,POSITIVE_LENGTH_MEASURE(2.E-2),#5);
#97=PRESENTATION_STYLE_ASSIGNMENT((#96));
#98=STYLED_ITEM('',(#97),#95);
#99=CARTESIAN_POINT('',(-2.E0,-7.999999999998E0,0.E0));
#100=DIRECTION('',(0.E0,0.E0,-1.E0));
#101=DIRECTION('',(1.427937004195E-7,-1.E0,0.E0));
#102=AXIS2_PLACEMENT_3D('',#99,#100,#101);
#104=CURVE_STYLE('',#47,POSITIVE_LENGTH_MEASURE(2.E-2),#5);
#105=PRESENTATION_STYLE_ASSIGNMENT((#104));
#106=STYLED_ITEM('',(#105),#103);
#107=CARTESIAN_POINT('',(0.E0,-7.999999999998E0,0.E0));
#108=DIRECTION('',(0.E0,1.E0,0.E0));
#109=DIRECTION('',(-1.E0,0.E0,8.138700484242E-12));
#110=AXIS2_PLACEMENT_3D('',#107,#108,#109);
#112=CURVE_STYLE('',#47,POSITIVE_LENGTH_MEASURE(2.E-2),#5);
#113=PRESENTATION_STYLE_ASSIGNMENT((#112));
#114=STYLED_ITEM('',(#113),#111);
#115=CARTESIAN_POINT('',(0.E0,-7.999999999998E0,0.E0));
#116=DIRECTION('',(0.E0,1.E0,0.E0));
#117=DIRECTION('',(-9.998282472282E-1,0.E0,1.853310671588E-2));
#118=AXIS2_PLACEMENT_3D('',#115,#116,#117);
#120=CURVE_STYLE('',#47,POSITIVE_LENGTH_MEASURE(2.E-2),#5);
#121=PRESENTATION_STYLE_ASSIGNMENT((#120));
#122=STYLED_ITEM('',(#121),#119);
#123=DIRECTION('',(0.E0,1.E0,0.E0));
#124=VECTOR('',#123,1.6E1);
#125=CARTESIAN_POINT('',(-2.5E0,-7.999999999998E0,1.017286212715E-11));
#126=LINE('',#125,#124);
#127=CURVE_STYLE('',#47,POSITIVE_LENGTH_MEASURE(2.E-2),#5);
#128=PRESENTATION_STYLE_ASSIGNMENT((#127));
#129=STYLED_ITEM('',(#128),#126);
#130=CARTESIAN_POINT('',(0.E0,7.999999999998E0,0.E0));
#131=DIRECTION('',(0.E0,-1.E0,0.E0));
#132=DIRECTION('',(1.E0,0.E0,0.E0));
#133=AXIS2_PLACEMENT_3D('',#130,#131,#132);
#135=CURVE_STYLE('',#47,POSITIVE_LENGTH_MEASURE(2.E-2),#5);
#136=PRESENTATION_STYLE_ASSIGNMENT((#135));
#137=STYLED_ITEM('',(#136),#134);
#138=CARTESIAN_POINT('',(0.E0,7.999999999998E0,0.E0));
#139=DIRECTION('',(0.E0,-1.E0,0.E0));
#140=DIRECTION('',(9.999148874647E-1,0.E0,1.304675539756E-2));
#141=AXIS2_PLACEMENT_3D('',#138,#139,#140);
#143=CURVE_STYLE('',#47,POSITIVE_LENGTH_MEASURE(2.E-2),#5);
#144=PRESENTATION_STYLE_ASSIGNMENT((#143));
#145=STYLED_ITEM('',(#144),#142);
#146=CARTESIAN_POINT('',(0.E0,8.499999999998E0,0.E0));
#147=DIRECTION('',(0.E0,1.E0,0.E0));
#148=DIRECTION('',(-1.E0,0.E0,0.E0));
#149=AXIS2_PLACEMENT_3D('',#146,#147,#148);
#151=CURVE_STYLE('',#47,POSITIVE_LENGTH_MEASURE(2.E-2),#5);
#152=PRESENTATION_STYLE_ASSIGNMENT((#151));
#153=STYLED_ITEM('',(#152),#150);
#154=CARTESIAN_POINT('',(0.E0,8.499999999998E0,0.E0));
#155=DIRECTION('',(0.E0,1.E0,0.E0));
#156=DIRECTION('',(9.999148874647E-1,0.E0,1.304675539756E-2));
#157=AXIS2_PLACEMENT_3D('',#154,#155,#156);
#159=CURVE_STYLE('',#47,POSITIVE_LENGTH_MEASURE(2.E-2),#5);
#160=PRESENTATION_STYLE_ASSIGNMENT((#159));
#161=STYLED_ITEM('',(#160),#158);
#162=CARTESIAN_POINT('',(2.E0,7.999999999998E0,0.E0));
#163=DIRECTION('',(0.E0,0.E0,-1.E0));
#164=DIRECTION('',(0.E0,1.E0,0.E0));
#165=AXIS2_PLACEMENT_3D('',#162,#163,#164);
#167=CURVE_STYLE('',#47,POSITIVE_LENGTH_MEASURE(2.E-2),#5);
#168=PRESENTATION_STYLE_ASSIGNMENT((#167));
#169=STYLED_ITEM('',(#168),#166);
#170=CARTESIAN_POINT('',(0.E0,7.999999999998E0,0.E0));
#171=DIRECTION('',(0.E0,-1.E0,0.E0));
#172=DIRECTION('',(-1.E0,0.E0,8.138700484242E-12));
#173=AXIS2_PLACEMENT_3D('',#170,#171,#172);
#175=CURVE_STYLE('',#47,POSITIVE_LENGTH_MEASURE(2.E-2),#5);
#176=PRESENTATION_STYLE_ASSIGNMENT((#175));
#177=STYLED_ITEM('',(#176),#174);
#178=CARTESIAN_POINT('',(0.E0,7.999999999998E0,0.E0));
#179=DIRECTION('',(0.E0,-1.E0,0.E0));
#180=DIRECTION('',(-9.999148874647E-1,0.E0,-1.304675539756E-2));
#181=AXIS2_PLACEMENT_3D('',#178,#179,#180);
#183=CURVE_STYLE('',#47,POSITIVE_LENGTH_MEASURE(2.E-2),#5);
#184=PRESENTATION_STYLE_ASSIGNMENT((#183));
#185=STYLED_ITEM('',(#184),#182);
#186=CARTESIAN_POINT('',(0.E0,8.499999999998E0,0.E0));
#187=DIRECTION('',(0.E0,1.E0,0.E0));
#188=DIRECTION('',(1.E0,0.E0,0.E0));
#189=AXIS2_PLACEMENT_3D('',#186,#187,#188);
#191=CURVE_STYLE('',#47,POSITIVE_LENGTH_MEASURE(2.E-2),#5);
#192=PRESENTATION_STYLE_ASSIGNMENT((#191));
#193=STYLED_ITEM('',(#192),#190);
#194=CARTESIAN_POINT('',(0.E0,8.499999999998E0,0.E0));
#195=DIRECTION('',(0.E0,1.E0,0.E0));
#196=DIRECTION('',(-9.999148874647E-1,0.E0,-1.304675539756E-2));
#197=AXIS2_PLACEMENT_3D('',#194,#195,#196);
#199=CURVE_STYLE('',#47,POSITIVE_LENGTH_MEASURE(2.E-2),#5);
#200=PRESENTATION_STYLE_ASSIGNMENT((#199));
#201=STYLED_ITEM('',(#200),#198);
#202=CARTESIAN_POINT('',(-2.E0,7.999999999998E0,0.E0));
#203=DIRECTION('',(0.E0,0.E0,1.E0));
#204=DIRECTION('',(0.E0,1.E0,0.E0));
#205=AXIS2_PLACEMENT_3D('',#202,#203,#204);
#207=CURVE_STYLE('',#47,POSITIVE_LENGTH_MEASURE(2.E-2),#5);
#208=PRESENTATION_STYLE_ASSIGNMENT((#207));
#209=STYLED_ITEM('',(#208),#206);
#210=DIRECTION('',(0.E0,1.E0,0.E0));
#211=VECTOR('',#210,1.6E1);
#212=CARTESIAN_POINT('',(2.5E0,-7.999999999998E0,0.E0));
#213=LINE('',#212,#211);
#214=CURVE_STYLE('',#47,POSITIVE_LENGTH_MEASURE(2.E-2),#5);
#215=PRESENTATION_STYLE_ASSIGNMENT((#214));
#216=STYLED_ITEM('',(#215),#213);
#217=DIRECTION('',(0.E0,1.E0,0.E0));
#218=VECTOR('',#217,2.999999999999E0);
#219=CARTESIAN_POINT('',(2.E0,8.499999999998E0,0.E0));
#220=LINE('',#219,#218);
#221=CURVE_STYLE('',#47,POSITIVE_LENGTH_MEASURE(2.E-2),#5);
#222=PRESENTATION_STYLE_ASSIGNMENT((#221));
#223=STYLED_ITEM('',(#222),#220);
#224=DIRECTION('',(0.E0,1.E0,0.E0));
#225=VECTOR('',#224,2.999999999999E0);
#226=CARTESIAN_POINT('',(-2.E0,8.499999999998E0,0.E0));
#227=LINE('',#226,#225);
#228=CURVE_STYLE('',#47,POSITIVE_LENGTH_MEASURE(2.E-2),#5);
#229=PRESENTATION_STYLE_ASSIGNMENT((#228));
#230=STYLED_ITEM('',(#229),#227);
#231=CARTESIAN_POINT('',(0.E0,1.15E1,0.E0));
#232=DIRECTION('',(0.E0,-1.E0,0.E0));
#233=DIRECTION('',(1.E0,0.E0,0.E0));
#234=AXIS2_PLACEMENT_3D('',#231,#232,#233);
#236=CURVE_STYLE('',#47,POSITIVE_LENGTH_MEASURE(2.E-2),#5);
#237=PRESENTATION_STYLE_ASSIGNMENT((#236));
#238=STYLED_ITEM('',(#237),#235);
#239=CARTESIAN_POINT('',(0.E0,1.15E1,0.E0));
#240=DIRECTION('',(0.E0,-1.E0,0.E0));
#241=DIRECTION('',(-1.E0,0.E0,0.E0));
#242=AXIS2_PLACEMENT_3D('',#239,#240,#241);
#244=CURVE_STYLE('',#47,POSITIVE_LENGTH_MEASURE(2.E-2),#5);
#245=PRESENTATION_STYLE_ASSIGNMENT((#244));
#246=STYLED_ITEM('',(#245),#243);
#247=CARTESIAN_POINT('',(0.E0,1.15E1,0.E0));
#248=DIRECTION('',(0.E0,1.E0,0.E0));
#249=DIRECTION('',(1.E0,0.E0,0.E0));
#250=AXIS2_PLACEMENT_3D('',#247,#248,#249);
#252=CURVE_STYLE('',#47,POSITIVE_LENGTH_MEASURE(2.E-2),#5);
#253=PRESENTATION_STYLE_ASSIGNMENT((#252));
#254=STYLED_ITEM('',(#253),#251);
#255=CARTESIAN_POINT('',(0.E0,1.15E1,0.E0));
#256=DIRECTION('',(0.E0,1.E0,0.E0));
#257=DIRECTION('',(-1.E0,0.E0,0.E0));
#258=AXIS2_PLACEMENT_3D('',#255,#256,#257);
#260=CURVE_STYLE('',#47,POSITIVE_LENGTH_MEASURE(2.E-2),#5);
#261=PRESENTATION_STYLE_ASSIGNMENT((#260));
#262=STYLED_ITEM('',(#261),#259);
#263=DIRECTION('',(0.E0,1.E0,0.E0));
#264=VECTOR('',#263,9.999999999998E0);
#265=CARTESIAN_POINT('',(1.5E0,1.15E1,0.E0));
#266=LINE('',#265,#264);
#267=CURVE_STYLE('',#47,POSITIVE_LENGTH_MEASURE(2.E-2),#5);
#268=PRESENTATION_STYLE_ASSIGNMENT((#267));
#269=STYLED_ITEM('',(#268),#266);
#270=DIRECTION('',(0.E0,1.E0,0.E0));
#271=VECTOR('',#270,9.999999999998E0);
#272=CARTESIAN_POINT('',(-1.5E0,1.15E1,0.E0));
#273=LINE('',#272,#271);
#274=CURVE_STYLE('',#47,POSITIVE_LENGTH_MEASURE(2.E-2),#5);
#275=PRESENTATION_STYLE_ASSIGNMENT((#274));
#276=STYLED_ITEM('',(#275),#273);
#277=CARTESIAN_POINT('',(0.E0,2.15E1,0.E0));
#278=DIRECTION('',(0.E0,-1.E0,0.E0));
#279=DIRECTION('',(-1.E0,0.E0,0.E0));
#280=AXIS2_PLACEMENT_3D('',#277,#278,#279);
#282=CURVE_STYLE('',#47,POSITIVE_LENGTH_MEASURE(2.E-2),#5);
#283=PRESENTATION_STYLE_ASSIGNMENT((#282));
#284=STYLED_ITEM('',(#283),#281);
#285=CARTESIAN_POINT('',(0.E0,2.15E1,0.E0));
#286=DIRECTION('',(0.E0,-1.E0,0.E0));
#287=DIRECTION('',(1.E0,0.E0,0.E0));
#288=AXIS2_PLACEMENT_3D('',#285,#286,#287);
#290=CURVE_STYLE('',#47,POSITIVE_LENGTH_MEASURE(2.E-2),#5);
#291=PRESENTATION_STYLE_ASSIGNMENT((#290));
#292=STYLED_ITEM('',(#291),#289);
#293=CARTESIAN_POINT('',(1.999656423071E0,-8.499999999998E0,
-3.706621210855E-2));
#294=CARTESIAN_POINT('',(1.999999928603E0,-8.499999999998E0,0.E0));
#295=VERTEX_POINT('',#293);
#296=VERTEX_POINT('',#294);
#297=CARTESIAN_POINT('',(-1.999999928603E0,-8.499999999998E0,0.E0));
#298=VERTEX_POINT('',#297);
#299=CARTESIAN_POINT('',(-1.999656423071E0,-8.499999999998E0,
3.706621210855E-2));
#300=VERTEX_POINT('',#299);
#301=CARTESIAN_POINT('',(2.5E0,-7.999999999998E0,0.E0));
#302=VERTEX_POINT('',#301);
#303=CARTESIAN_POINT('',(2.499570618070E0,-7.999999999998E0,
-4.633276678969E-2));
#304=VERTEX_POINT('',#303);
#305=CARTESIAN_POINT('',(-2.5E0,-7.999999999998E0,2.034647450522E-11));
#306=VERTEX_POINT('',#305);
#307=CARTESIAN_POINT('',(-2.499570618070E0,-7.999999999998E0,
4.633276678968E-2));
#308=VERTEX_POINT('',#307);
#309=CARTESIAN_POINT('',(2.499787218661E0,7.999999999998E0,3.261688849390E-2));
#310=CARTESIAN_POINT('',(-2.5E0,7.999999999998E0,2.034675899987E-11));
#311=VERTEX_POINT('',#309);
#312=VERTEX_POINT('',#310);
#313=CARTESIAN_POINT('',(2.5E0,7.999999999998E0,0.E0));
#314=VERTEX_POINT('',#313);
#315=CARTESIAN_POINT('',(-2.E0,8.499999999998E0,0.E0));
#316=VERTEX_POINT('',#315);
#317=CARTESIAN_POINT('',(1.999829774929E0,8.499999999998E0,2.609351079511E-2));
#318=VERTEX_POINT('',#317);
#319=CARTESIAN_POINT('',(2.E0,8.499999999998E0,0.E0));
#320=VERTEX_POINT('',#319);
#321=CARTESIAN_POINT('',(-2.499787218661E0,7.999999999998E0,
-3.261688849390E-2));
#322=VERTEX_POINT('',#321);
#323=CARTESIAN_POINT('',(-1.999829774929E0,8.499999999998E0,
-2.609351079512E-2));
#324=VERTEX_POINT('',#323);
#325=CARTESIAN_POINT('',(2.E0,1.15E1,0.E0));
#326=VERTEX_POINT('',#325);
#327=CARTESIAN_POINT('',(-2.E0,1.15E1,0.E0));
#328=VERTEX_POINT('',#327);
#329=CARTESIAN_POINT('',(1.5E0,1.15E1,0.E0));
#330=CARTESIAN_POINT('',(-1.5E0,1.15E1,0.E0));
#331=VERTEX_POINT('',#329);
#332=VERTEX_POINT('',#330);
#333=CARTESIAN_POINT('',(1.5E0,2.15E1,0.E0));
#334=VERTEX_POINT('',#333);
#335=CARTESIAN_POINT('',(-1.5E0,2.15E1,0.E0));
#336=VERTEX_POINT('',#335);
#337=CARTESIAN_POINT('',(0.E0,-8.499999999998E0,0.E0));
#338=DIRECTION('',(0.E0,1.E0,0.E0));
#339=DIRECTION('',(1.E0,0.E0,0.E0));
#340=AXIS2_PLACEMENT_3D('',#337,#338,#339);
#341=PLANE('',#340);
#343=ORIENTED_EDGE('',*,*,#342,.F.);
#345=ORIENTED_EDGE('',*,*,#344,.T.);
#347=ORIENTED_EDGE('',*,*,#346,.F.);
#349=ORIENTED_EDGE('',*,*,#348,.T.);
#350=EDGE_LOOP('',(#343,#345,#347,#349));
#351=FACE_OUTER_BOUND('',#350,.F.);
#352=ADVANCED_FACE('',(#351),#341,.F.);
#353=CARTESIAN_POINT('',(0.E0,-7.999999999998E0,0.E0));
#354=DIRECTION('',(0.E0,1.E0,0.E0));
#355=DIRECTION('',(-9.998282472282E-1,0.E0,1.853310671588E-2));
#356=AXIS2_PLACEMENT_3D('',#353,#354,#355);
#357=TOROIDAL_SURFACE('',#356,2.E0,4.999999999999E-1);
#358=ORIENTED_EDGE('',*,*,#344,.F.);
#359=ORIENTED_EDGE('',*,*,#342,.T.);
#361=ORIENTED_EDGE('',*,*,#360,.T.);
#363=ORIENTED_EDGE('',*,*,#362,.T.);
#365=ORIENTED_EDGE('',*,*,#364,.T.);
#367=ORIENTED_EDGE('',*,*,#366,.F.);
#368=EDGE_LOOP('',(#358,#359,#361,#363,#365,#367));
#369=FACE_OUTER_BOUND('',#368,.F.);
#370=ADVANCED_FACE('',(#369),#357,.T.);
#371=CARTESIAN_POINT('',(0.E0,-7.999999999998E0,0.E0));
#372=DIRECTION('',(0.E0,1.E0,0.E0));
#373=DIRECTION('',(9.998282472282E-1,0.E0,-1.853310671588E-2));
#374=AXIS2_PLACEMENT_3D('',#371,#372,#373);
#375=TOROIDAL_SURFACE('',#374,2.E0,4.999999999999E-1);
#376=ORIENTED_EDGE('',*,*,#348,.F.);
#377=ORIENTED_EDGE('',*,*,#346,.T.);
#378=ORIENTED_EDGE('',*,*,#366,.T.);
#380=ORIENTED_EDGE('',*,*,#379,.T.);
#382=ORIENTED_EDGE('',*,*,#381,.T.);
#383=ORIENTED_EDGE('',*,*,#360,.F.);
#384=EDGE_LOOP('',(#376,#377,#378,#380,#382,#383));
#385=FACE_OUTER_BOUND('',#384,.F.);
#386=ADVANCED_FACE('',(#385),#375,.T.);
#387=CARTESIAN_POINT('',(0.E0,-8.499999999998E0,0.E0));
#388=DIRECTION('',(0.E0,1.E0,0.E0));
#389=DIRECTION('',(1.E0,0.E0,0.E0));
#390=AXIS2_PLACEMENT_3D('',#387,#388,#389);
#391=CYLINDRICAL_SURFACE('',#390,2.5E0);
#393=ORIENTED_EDGE('',*,*,#392,.F.);
#395=ORIENTED_EDGE('',*,*,#394,.F.);
#397=ORIENTED_EDGE('',*,*,#396,.F.);
#398=ORIENTED_EDGE('',*,*,#381,.F.);
#399=ORIENTED_EDGE('',*,*,#379,.F.);
#401=ORIENTED_EDGE('',*,*,#400,.T.);
#402=EDGE_LOOP('',(#393,#395,#397,#398,#399,#401));
#403=FACE_OUTER_BOUND('',#402,.F.);
#404=ADVANCED_FACE('',(#403),#391,.T.);
#405=CARTESIAN_POINT('',(0.E0,7.999999999998E0,0.E0));
#406=DIRECTION('',(0.E0,1.E0,0.E0));
#407=DIRECTION('',(-9.999148874647E-1,0.E0,-1.304675539756E-2));
#408=AXIS2_PLACEMENT_3D('',#405,#406,#407);
#409=TOROIDAL_SURFACE('',#408,2.E0,4.999999999999E-1);
#410=ORIENTED_EDGE('',*,*,#394,.T.);
#411=ORIENTED_EDGE('',*,*,#392,.T.);
#413=ORIENTED_EDGE('',*,*,#412,.F.);
#415=ORIENTED_EDGE('',*,*,#414,.T.);
#417=ORIENTED_EDGE('',*,*,#416,.T.);
#419=ORIENTED_EDGE('',*,*,#418,.T.);
#420=EDGE_LOOP('',(#410,#411,#413,#415,#417,#419));
#421=FACE_OUTER_BOUND('',#420,.F.);
#422=ADVANCED_FACE('',(#421),#409,.T.);
#423=CARTESIAN_POINT('',(0.E0,7.999999999998E0,0.E0));
#424=DIRECTION('',(0.E0,1.E0,0.E0));
#425=DIRECTION('',(9.999148874647E-1,0.E0,1.304675539756E-2));
#426=AXIS2_PLACEMENT_3D('',#423,#424,#425);
#427=TOROIDAL_SURFACE('',#426,2.E0,4.999999999999E-1);
#429=ORIENTED_EDGE('',*,*,#428,.T.);
#431=ORIENTED_EDGE('',*,*,#430,.T.);
#432=ORIENTED_EDGE('',*,*,#418,.F.);
#434=ORIENTED_EDGE('',*,*,#433,.T.);
#436=ORIENTED_EDGE('',*,*,#435,.T.);
#437=ORIENTED_EDGE('',*,*,#412,.T.);
#438=EDGE_LOOP('',(#429,#431,#432,#434,#436,#437));
#439=FACE_OUTER_BOUND('',#438,.F.);
#440=ADVANCED_FACE('',(#439),#427,.T.);
#441=CARTESIAN_POINT('',(0.E0,-8.499999999998E0,0.E0));
#442=DIRECTION('',(0.E0,1.E0,0.E0));
#443=DIRECTION('',(1.E0,0.E0,0.E0));
#444=AXIS2_PLACEMENT_3D('',#441,#442,#443);
#445=CYLINDRICAL_SURFACE('',#444,2.5E0);
#446=ORIENTED_EDGE('',*,*,#430,.F.);
#447=ORIENTED_EDGE('',*,*,#428,.F.);
#448=ORIENTED_EDGE('',*,*,#400,.F.);
#449=ORIENTED_EDGE('',*,*,#364,.F.);
#450=ORIENTED_EDGE('',*,*,#362,.F.);
#451=ORIENTED_EDGE('',*,*,#396,.T.);
#452=EDGE_LOOP('',(#446,#447,#448,#449,#450,#451));
#453=FACE_OUTER_BOUND('',#452,.F.);
#454=ADVANCED_FACE('',(#453),#445,.T.);
#455=CARTESIAN_POINT('',(0.E0,8.499999999998E0,0.E0));
#456=DIRECTION('',(0.E0,1.E0,0.E0));
#457=DIRECTION('',(-1.E0,0.E0,0.E0));
#458=AXIS2_PLACEMENT_3D('',#455,#456,#457);
#459=CYLINDRICAL_SURFACE('',#458,2.E0);
#460=ORIENTED_EDGE('',*,*,#435,.F.);
#461=ORIENTED_EDGE('',*,*,#433,.F.);
#463=ORIENTED_EDGE('',*,*,#462,.T.);
#465=ORIENTED_EDGE('',*,*,#464,.F.);
#467=ORIENTED_EDGE('',*,*,#466,.F.);
#468=EDGE_LOOP('',(#460,#461,#463,#465,#467));
#469=FACE_OUTER_BOUND('',#468,.F.);
#470=ADVANCED_FACE('',(#469),#459,.T.);
#471=CARTESIAN_POINT('',(0.E0,8.499999999998E0,0.E0));
#472=DIRECTION('',(0.E0,1.E0,0.E0));
#473=DIRECTION('',(-1.E0,0.E0,0.E0));
#474=AXIS2_PLACEMENT_3D('',#471,#472,#473);
#475=CYLINDRICAL_SURFACE('',#474,2.E0);
#476=ORIENTED_EDGE('',*,*,#416,.F.);
#477=ORIENTED_EDGE('',*,*,#414,.F.);
#478=ORIENTED_EDGE('',*,*,#466,.T.);
#480=ORIENTED_EDGE('',*,*,#479,.F.);
#481=ORIENTED_EDGE('',*,*,#462,.F.);
#482=EDGE_LOOP('',(#476,#477,#478,#480,#481));
#483=FACE_OUTER_BOUND('',#482,.F.);
#484=ADVANCED_FACE('',(#483),#475,.T.);
#485=CARTESIAN_POINT('',(0.E0,1.15E1,0.E0));
#486=DIRECTION('',(0.E0,1.E0,0.E0));
#487=DIRECTION('',(-1.E0,0.E0,0.E0));
#488=AXIS2_PLACEMENT_3D('',#485,#486,#487);
#489=PLANE('',#488);
#490=ORIENTED_EDGE('',*,*,#479,.T.);
#491=ORIENTED_EDGE('',*,*,#464,.T.);
#492=EDGE_LOOP('',(#490,#491));
#493=FACE_OUTER_BOUND('',#492,.F.);
#495=ORIENTED_EDGE('',*,*,#494,.T.);
#497=ORIENTED_EDGE('',*,*,#496,.T.);
#498=EDGE_LOOP('',(#495,#497));
#499=FACE_BOUND('',#498,.F.);
#500=ADVANCED_FACE('',(#493,#499),#489,.T.);
#501=CARTESIAN_POINT('',(0.E0,1.15E1,0.E0));
#502=DIRECTION('',(0.E0,1.E0,0.E0));
#503=DIRECTION('',(1.E0,0.E0,0.E0));
#504=AXIS2_PLACEMENT_3D('',#501,#502,#503);
#505=CYLINDRICAL_SURFACE('',#504,1.5E0);
#507=ORIENTED_EDGE('',*,*,#506,.T.);
#509=ORIENTED_EDGE('',*,*,#508,.F.);
#511=ORIENTED_EDGE('',*,*,#510,.F.);
#512=ORIENTED_EDGE('',*,*,#494,.F.);
#513=EDGE_LOOP('',(#507,#509,#511,#512));
#514=FACE_OUTER_BOUND('',#513,.F.);
#515=ADVANCED_FACE('',(#514),#505,.T.);
#516=FILL_AREA_STYLE_COLOUR('',#28);
#517=FILL_AREA_STYLE('',(#516));
#518=SURFACE_STYLE_FILL_AREA(#517);
#519=SURFACE_SIDE_STYLE('',(#518));
#520=SURFACE_STYLE_USAGE(.POSITIVE.,#519);
#521=FILL_AREA_STYLE_COLOUR('',#5);
#522=FILL_AREA_STYLE('',(#521));
#523=SURFACE_STYLE_FILL_AREA(#522);
#524=SURFACE_SIDE_STYLE('',(#523));
#525=SURFACE_STYLE_USAGE(.NEGATIVE.,#524);
#526=PRESENTATION_STYLE_ASSIGNMENT((#520,#525));
#527=OVER_RIDING_STYLED_ITEM('',(#526),#515,#41);
#528=CARTESIAN_POINT('',(0.E0,1.15E1,0.E0));
#529=DIRECTION('',(0.E0,1.E0,0.E0));
#530=DIRECTION('',(1.E0,0.E0,0.E0));
#531=AXIS2_PLACEMENT_3D('',#528,#529,#530);
#532=CYLINDRICAL_SURFACE('',#531,1.5E0);
#533=ORIENTED_EDGE('',*,*,#506,.F.);
#534=ORIENTED_EDGE('',*,*,#496,.F.);
#535=ORIENTED_EDGE('',*,*,#510,.T.);
#537=ORIENTED_EDGE('',*,*,#536,.F.);
#538=EDGE_LOOP('',(#533,#534,#535,#537));
#539=FACE_OUTER_BOUND('',#538,.F.);
#540=ADVANCED_FACE('',(#539),#532,.T.);
#541=FILL_AREA_STYLE_COLOUR('',#28);
#542=FILL_AREA_STYLE('',(#541));
#543=SURFACE_STYLE_FILL_AREA(#542);
#544=SURFACE_SIDE_STYLE('',(#543));
#545=SURFACE_STYLE_USAGE(.POSITIVE.,#544);
#546=FILL_AREA_STYLE_COLOUR('',#5);
#547=FILL_AREA_STYLE('',(#546));
#548=SURFACE_STYLE_FILL_AREA(#547);
#549=SURFACE_SIDE_STYLE('',(#548));
#550=SURFACE_STYLE_USAGE(.NEGATIVE.,#549);
#551=PRESENTATION_STYLE_ASSIGNMENT((#545,#550));
#552=OVER_RIDING_STYLED_ITEM('',(#551),#540,#41);
#553=CARTESIAN_POINT('',(0.E0,2.15E1,0.E0));
#554=DIRECTION('',(0.E0,1.E0,0.E0));
#555=DIRECTION('',(1.E0,0.E0,0.E0));
#556=AXIS2_PLACEMENT_3D('',#553,#554,#555);
#557=PLANE('',#556);
#558=ORIENTED_EDGE('',*,*,#508,.T.);
#559=ORIENTED_EDGE('',*,*,#536,.T.);
#560=EDGE_LOOP('',(#558,#559));
#561=FACE_OUTER_BOUND('',#560,.F.);
#562=ADVANCED_FACE('',(#561),#557,.T.);
#563=FILL_AREA_STYLE_COLOUR('',#28);
#564=FILL_AREA_STYLE('',(#563));
#565=SURFACE_STYLE_FILL_AREA(#564);
#566=SURFACE_SIDE_STYLE('',(#565));
#567=SURFACE_STYLE_USAGE(.POSITIVE.,#566);
#568=FILL_AREA_STYLE_COLOUR('',#5);
#569=FILL_AREA_STYLE('',(#568));
#570=SURFACE_STYLE_FILL_AREA(#569);
#571=SURFACE_SIDE_STYLE('',(#570));
#572=SURFACE_STYLE_USAGE(.NEGATIVE.,#571);
#573=PRESENTATION_STYLE_ASSIGNMENT((#567,#572));
#574=OVER_RIDING_STYLED_ITEM('',(#573),#562,#41);
#575=CLOSED_SHELL('',(#352,#370,#386,#404,#422,#440,#454,#470,#484,#500,#515,
#540,#562));
#576=MANIFOLD_SOLID_BREP('',#575);
#577=FILL_AREA_STYLE_COLOUR('',#5);
#578=FILL_AREA_STYLE('',(#577));
#579=SURFACE_STYLE_FILL_AREA(#578);
#580=SURFACE_SIDE_STYLE('',(#579));
#581=SURFACE_STYLE_USAGE(.BOTH.,#580);
#582=PRESENTATION_STYLE_ASSIGNMENT((#581));
#41=STYLED_ITEM('',(#582),#576);
#584=DIMENSIONAL_EXPONENTS(0.E0,0.E0,0.E0,0.E0,0.E0,0.E0,0.E0);
#586=PLANE_ANGLE_MEASURE_WITH_UNIT(PLANE_ANGLE_MEASURE(1.745329251994E-2),#585);
#587=(CONVERSION_BASED_UNIT('DEGREE',#586)NAMED_UNIT(*)PLANE_ANGLE_UNIT());
#589=UNCERTAINTY_MEASURE_WITH_UNIT(LENGTH_MEASURE(3.082083713204E-3),#583,
'closure',
'Maximum model space distance between geometric entities at asserted connectivities');
#590=(GEOMETRIC_REPRESENTATION_CONTEXT(3)GLOBAL_UNCERTAINTY_ASSIGNED_CONTEXT((
#589))GLOBAL_UNIT_ASSIGNED_CONTEXT((#583,#587,#588))REPRESENTATION_CONTEXT
('ID1','3'));
#592=MECHANICAL_DESIGN_GEOMETRIC_PRESENTATION_REPRESENTATION('',(#50,#58,#66,
#74,#82,#90,#98,#106,#114,#122,#129,#137,#145,#153,#161,#169,#177,#185,#193,
#201,#209,#216,#223,#230,#238,#246,#254,#262,#269,#276,#284,#292,#527,#552,#574,
#41),#590);
#593=APPLICATION_CONTEXT(
'CONFIGURATION CONTROLLED 3D DESIGNS OF MECHANICAL PARTS AND ASSEMBLIES');
#594=APPLICATION_PROTOCOL_DEFINITION('international standard',
'config_control_design',1994,#593);
#595=DESIGN_CONTEXT('',#593,'design');
#596=MECHANICAL_CONTEXT('',#593,'mechanical');
#597=PRODUCT('CAD0696B','CAD0696B','NOT SPECIFIED',(#596));
#598=PRODUCT_DEFINITION_FORMATION_WITH_SPECIFIED_SOURCE('1','LAST_VERSION',#597,
.MADE.);
#602=PRODUCT_CATEGORY('part','');
#603=PRODUCT_RELATED_PRODUCT_CATEGORY('detail','',(#597));
#604=PRODUCT_CATEGORY_RELATIONSHIP('','',#602,#603);
#605=SECURITY_CLASSIFICATION_LEVEL('unclassified');
#606=SECURITY_CLASSIFICATION('','',#605);
#607=CC_DESIGN_SECURITY_CLASSIFICATION(#606,(#598));
#608=APPROVAL_STATUS('approved');
#609=APPROVAL(#608,'');
#610=CC_DESIGN_APPROVAL(#609,(#606,#598,#599));
#611=CALENDAR_DATE(114,3,1);
#612=COORDINATED_UNIVERSAL_TIME_OFFSET(1,0,.AHEAD.);
#613=LOCAL_TIME(14,46,5.7E1,#612);
#614=DATE_AND_TIME(#611,#613);
#615=APPROVAL_DATE_TIME(#614,#609);
#616=DATE_TIME_ROLE('creation_date');
#617=CC_DESIGN_DATE_AND_TIME_ASSIGNMENT(#614,#616,(#599));
#618=DATE_TIME_ROLE('classification_date');
#619=CC_DESIGN_DATE_AND_TIME_ASSIGNMENT(#614,#618,(#606));
#620=PERSON('UNSPECIFIED','UNSPECIFIED',$,$,$,$);
#621=ORGANIZATION('UNSPECIFIED','UNSPECIFIED','UNSPECIFIED');
#622=PERSON_AND_ORGANIZATION(#620,#621);
#623=APPROVAL_ROLE('approver');
#624=APPROVAL_PERSON_ORGANIZATION(#622,#609,#623);
#625=PERSON_AND_ORGANIZATION_ROLE('creator');
#626=CC_DESIGN_PERSON_AND_ORGANIZATION_ASSIGNMENT(#622,#625,(#598,#599));
#627=PERSON_AND_ORGANIZATION_ROLE('design_supplier');
#628=CC_DESIGN_PERSON_AND_ORGANIZATION_ASSIGNMENT(#622,#627,(#598));
#629=PERSON_AND_ORGANIZATION_ROLE('classification_officer');
#630=CC_DESIGN_PERSON_AND_ORGANIZATION_ASSIGNMENT(#622,#629,(#606));
#631=PERSON_AND_ORGANIZATION_ROLE('design_owner');
#632=CC_DESIGN_PERSON_AND_ORGANIZATION_ASSIGNMENT(#622,#631,(#597));
#1=COLOUR_RGB('',0.E0,0.E0,1.96E-1);
#2=COLOUR_RGB('',0.E0,0.E0,3.14E-1);
#3=COLOUR_RGB('',0.E0,1.96E-1,0.E0);
#4=COLOUR_RGB('',0.E0,3.14E-1,0.E0);
#5=COLOUR_RGB('',0.E0,6.E-1,4.E-1);
#6=COLOUR_RGB('',1.176470588235E-2,1.176470588235E-2,1.E0);
#7=COLOUR_RGB('',7.8E-2,7.8E-2,7.8E-2);
#8=COLOUR_RGB('',1.18E-1,1.18E-1,4.71E-1);
#9=COLOUR_RGB('',1.57E-1,1.57E-1,1.57E-1);
#10=COLOUR_RGB('',1.96E-1,0.E0,0.E0);
#11=COLOUR_RGB('',1.96E-1,0.E0,1.96E-1);
#12=COLOUR_RGB('',1.96E-1,5.88E-1,1.96E-1);
#13=COLOUR_RGB('',2.35E-1,2.35E-1,2.35E-1);
#14=COLOUR_RGB('',2.35E-1,2.35E-1,5.88E-1);
#15=COLOUR_RGB('',3.14E-1,3.14E-1,3.14E-1);
#16=COLOUR_RGB('',3.27543E-1,1.E0,6.33116E-1);
#17=COLOUR_RGB('',3.490196078431E-1,7.215686274510E-1,1.E0);
#18=COLOUR_RGB('',3.92E-1,0.E0,0.E0);
#19=COLOUR_RGB('',3.92E-1,0.E0,3.92E-1);
#20=COLOUR_RGB('',3.92E-1,3.92E-1,3.92E-1);
#21=COLOUR_RGB('',3.92E-1,3.92E-1,8.63E-1);
#22=COLOUR_RGB('',3.92E-1,5.88E-1,3.92E-1);
#23=COLOUR_RGB('',3.92E-1,5.88E-1,8.63E-1);
#24=COLOUR_RGB('',4.117647058824E-1,0.E0,2.196078431373E-1);
#25=COLOUR_RGB('',5.01961E-1,1.E0,5.01961E-1);
#26=COLOUR_RGB('',5.137254901961E-1,0.E0,0.E0);
#27=COLOUR_RGB('',5.5E-1,5.6E-1,7.E-1);
#28=COLOUR_RGB('',5.88235E-1,5.88235E-1,5.88235E-1);
#29=COLOUR_RGB('',5.88E-1,7.84E-1,5.88E-1);
#30=COLOUR_RGB('',6.2E-1,3.1E-1,6.5E-1);
#31=COLOUR_RGB('',6.666666666667E-1,4.627450980392E-1,2.196078431373E-1);
#32=COLOUR_RGB('',6.8E-1,8.5E-1,1.E0);
#33=COLOUR_RGB('',6.952E-1,7.426E-1,7.9E-1);
#34=COLOUR_RGB('',8.784313725490E-1,9.490196078431E-1,1.E0);
#35=COLOUR_RGB('',9.8E-1,3.92E-1,0.E0);
#36=COLOUR_RGB('',9.8E-1,5.88E-1,0.E0);
#37=COLOUR_RGB('',9.8E-1,7.84E-1,0.E0);
#38=COLOUR_RGB('',1.E0,3.7E-1,3.8E-1);
#39=DRAUGHTING_PRE_DEFINED_COLOUR('yellow');
#40=DRAUGHTING_PRE_DEFINED_COLOUR('white');
#46=CIRCLE('',#45,1.999999928603E0);
#55=CIRCLE('',#54,1.999999928603E0);
#63=CIRCLE('',#62,1.999999928603E0);
#71=CIRCLE('',#70,4.999999999999E-1);
#79=CIRCLE('',#78,2.5E0);
#87=CIRCLE('',#86,2.5E0);
#95=CIRCLE('',#94,1.999999928603E0);
#103=CIRCLE('',#102,4.999999999999E-1);
#111=CIRCLE('',#110,2.5E0);
#119=CIRCLE('',#118,2.5E0);
#134=CIRCLE('',#133,2.5E0);
#142=CIRCLE('',#141,2.5E0);
#150=CIRCLE('',#149,2.E0);
#158=CIRCLE('',#157,2.E0);
#166=CIRCLE('',#165,4.999999999999E-1);
#174=CIRCLE('',#173,2.5E0);
#182=CIRCLE('',#181,2.5E0);
#190=CIRCLE('',#189,2.E0);
#198=CIRCLE('',#197,2.E0);
#206=CIRCLE('',#205,4.999999999999E-1);
#235=CIRCLE('',#234,2.E0);
#243=CIRCLE('',#242,2.E0);
#251=CIRCLE('',#250,1.5E0);
#259=CIRCLE('',#258,1.5E0);
#281=CIRCLE('',#280,1.5E0);
#289=CIRCLE('',#288,1.5E0);
#342=EDGE_CURVE('',#295,#296,#63,.T.);
#344=EDGE_CURVE('',#295,#298,#46,.T.);
#346=EDGE_CURVE('',#300,#298,#95,.T.);
#348=EDGE_CURVE('',#300,#296,#55,.T.);
#360=EDGE_CURVE('',#296,#302,#71,.T.);
#362=EDGE_CURVE('',#302,#304,#79,.T.);
#364=EDGE_CURVE('',#304,#306,#87,.T.);
#366=EDGE_CURVE('',#298,#306,#103,.T.);
#379=EDGE_CURVE('',#306,#308,#111,.T.);
#381=EDGE_CURVE('',#308,#302,#119,.T.);
#392=EDGE_CURVE('',#311,#312,#142,.T.);
#394=EDGE_CURVE('',#314,#311,#134,.T.);
#396=EDGE_CURVE('',#302,#314,#213,.T.);
#400=EDGE_CURVE('',#306,#312,#126,.T.);
#412=EDGE_CURVE('',#316,#312,#206,.T.);
#414=EDGE_CURVE('',#316,#318,#150,.T.);
#416=EDGE_CURVE('',#318,#320,#158,.T.);
#418=EDGE_CURVE('',#320,#314,#166,.T.);
#428=EDGE_CURVE('',#312,#322,#174,.T.);
#430=EDGE_CURVE('',#322,#314,#182,.T.);
#433=EDGE_CURVE('',#320,#324,#190,.T.);
#435=EDGE_CURVE('',#324,#316,#198,.T.);
#462=EDGE_CURVE('',#320,#326,#220,.T.);
#464=EDGE_CURVE('',#328,#326,#243,.T.);
#466=EDGE_CURVE('',#316,#328,#227,.T.);
#479=EDGE_CURVE('',#326,#328,#235,.T.);
#494=EDGE_CURVE('',#331,#332,#251,.T.);
#496=EDGE_CURVE('',#332,#331,#259,.T.);
#506=EDGE_CURVE('',#331,#334,#266,.T.);
#508=EDGE_CURVE('',#336,#334,#281,.T.);
#510=EDGE_CURVE('',#332,#336,#273,.T.);
#536=EDGE_CURVE('',#334,#336,#289,.T.);
#583=(LENGTH_UNIT()NAMED_UNIT(*)SI_UNIT(.MILLI.,.METRE.));
#585=(NAMED_UNIT(*)PLANE_ANGLE_UNIT()SI_UNIT($,.RADIAN.));
#588=(NAMED_UNIT(*)SI_UNIT($,.STERADIAN.)SOLID_ANGLE_UNIT());
#591=ADVANCED_BREP_SHAPE_REPRESENTATION('',(#576),#590);
#599=PRODUCT_DEFINITION('design','',#598,#595);
#600=PRODUCT_DEFINITION_SHAPE('','SHAPE FOR CAD0696B.',#599);
#601=SHAPE_DEFINITION_REPRESENTATION(#600,#591);
ENDSEC;
END-ISO-10303-21;
