ISO-10303-21;
HEADER;
FILE_DESCRIPTION((''),'2;1');
FILE_NAME('CAD0974_B','2008-05-26T',('mabamberg'),(''),
'PRO/ENGINEER BY PARAMETRIC TECHNOLOGY CORPORATION, 2006300',
'PRO/ENGINEER BY PARAMETRIC TECHNOLOGY CORPORATION, 2006300','');
FILE_SCHEMA(('CONFIG_CONTROL_DESIGN'));
ENDSEC;
DATA;
#1=COLOUR_RGB('',0.E0,0.E0,1.96E-1);
#2=COLOUR_RGB('',0.E0,0.E0,3.14E-1);
#3=DRAUGHTING_PRE_DEFINED_COLOUR('blue');
#4=COLOUR_RGB('',0.E0,1.96E-1,0.E0);
#5=COLOUR_RGB('',0.E0,3.14E-1,0.E0);
#6=COLOUR_RGB('',0.E0,6.E-1,4.E-1);
#7=DRAUGHTING_PRE_DEFINED_COLOUR('green');
#8=COLOUR_RGB('',7.8E-2,7.8E-2,7.8E-2);
#9=COLOUR_RGB('',1.18E-1,1.18E-1,4.71E-1);
#10=COLOUR_RGB('',1.57E-1,1.57E-1,1.57E-1);
#11=COLOUR_RGB('',1.96E-1,0.E0,0.E0);
#12=COLOUR_RGB('',1.96E-1,0.E0,1.96E-1);
#13=COLOUR_RGB('',1.96E-1,5.88E-1,1.96E-1);
#14=COLOUR_RGB('',2.35E-1,2.35E-1,2.35E-1);
#15=COLOUR_RGB('',2.35E-1,2.35E-1,5.88E-1);
#16=COLOUR_RGB('',3.14E-1,3.14E-1,3.14E-1);
#17=COLOUR_RGB('',3.27543E-1,1.E0,6.33116E-1);
#18=COLOUR_RGB('',3.490196078431E-1,7.215686274510E-1,1.E0);
#19=COLOUR_RGB('',3.92E-1,0.E0,0.E0);
#20=COLOUR_RGB('',3.92E-1,0.E0,3.92E-1);
#21=COLOUR_RGB('',3.92E-1,3.92E-1,3.92E-1);
#22=COLOUR_RGB('',3.92E-1,3.92E-1,8.63E-1);
#23=COLOUR_RGB('',3.92E-1,5.88E-1,3.92E-1);
#24=COLOUR_RGB('',3.92E-1,5.88E-1,8.63E-1);
#25=COLOUR_RGB('',4.117647058824E-1,0.E0,2.196078431373E-1);
#26=COLOUR_RGB('',5.01961E-1,1.E0,5.01961E-1);
#27=COLOUR_RGB('',5.098039215686E-1,5.098039215686E-1,5.882352941176E-1);
#28=COLOUR_RGB('',5.137254901961E-1,0.E0,0.E0);
#29=COLOUR_RGB('',5.5E-1,5.6E-1,7.E-1);
#30=COLOUR_RGB('',5.88235E-1,5.88235E-1,5.88235E-1);
#31=COLOUR_RGB('',5.88E-1,7.84E-1,5.88E-1);
#32=COLOUR_RGB('',6.2E-1,3.1E-1,6.5E-1);
#33=COLOUR_RGB('',6.8E-1,8.5E-1,1.E0);
#34=COLOUR_RGB('',8.784E-1,9.49E-1,1.E0);
#35=COLOUR_RGB('',9.8E-1,3.92E-1,0.E0);
#36=COLOUR_RGB('',9.8E-1,5.88E-1,0.E0);
#37=COLOUR_RGB('',9.8E-1,7.84E-1,0.E0);
#38=DRAUGHTING_PRE_DEFINED_COLOUR('red');
#39=COLOUR_RGB('',1.E0,3.7E-1,3.8E-1);
#40=DRAUGHTING_PRE_DEFINED_COLOUR('yellow');
#41=DRAUGHTING_PRE_DEFINED_COLOUR('white');
#43=CARTESIAN_POINT('',(2.930988759333E-14,-8.999999879795E-1,-1.6E1));
#44=DIRECTION('',(-2.136129749593E-14,1.E0,0.E0));
#45=DIRECTION('',(2.534448168074E-14,0.E0,-1.E0));
#46=AXIS2_PLACEMENT_3D('',#43,#44,#45);
#48=DRAUGHTING_PRE_DEFINED_CURVE_FONT('continuous');
#49=CURVE_STYLE('',#48,POSITIVE_LENGTH_MEASURE(2.E-2),#6);
#50=PRESENTATION_STYLE_ASSIGNMENT((#49));
#51=STYLED_ITEM('',(#50),#47);
#52=CARTESIAN_POINT('',(2.931104866565E-14,-9.000543419964E-1,-1.6E1));
#53=DIRECTION('',(1.E0,2.136129749593E-14,0.E0));
#54=DIRECTION('',(2.136129749593E-14,-1.E0,0.E0));
#55=AXIS2_PLACEMENT_3D('',#52,#53,#54);
#57=CURVE_STYLE('',#48,POSITIVE_LENGTH_MEASURE(2.E-2),#6);
#58=PRESENTATION_STYLE_ASSIGNMENT((#57));
#59=STYLED_ITEM('',(#58),#56);
#60=CARTESIAN_POINT('',(0.E0,-1.499794772162E0,-1.655243360043E1));
#61=CARTESIAN_POINT('',(-5.107721652985E-2,-1.499794772162E0,
-1.655243360043E1));
#62=CARTESIAN_POINT('',(-1.498966521712E-1,-1.494363515794E0,
-1.653840569673E1));
#63=CARTESIAN_POINT('',(-2.912136262027E-1,-1.473138490372E0,
-1.647506341278E1));
#64=CARTESIAN_POINT('',(-4.114540969797E-1,-1.443414712375E0,
-1.637243998330E1));
#65=CARTESIAN_POINT('',(-5.000520163189E-1,-1.414333206160E0,
-1.623534940610E1));
#66=CARTESIAN_POINT('',(-5.450372213401E-1,-1.397045112465E0,
-1.608155441259E1));
#67=CARTESIAN_POINT('',(-5.452781156528E-1,-1.396940865986E0,
-1.592263066791E1));
#68=CARTESIAN_POINT('',(-5.034880589733E-1,-1.413047769587E0,
-1.577329714634E1));
#69=CARTESIAN_POINT('',(-4.185592245278E-1,-1.441293274650E0,
-1.563579857308E1));
#70=CARTESIAN_POINT('',(-2.985963248103E-1,-1.471772430501E0,
-1.552908545224E1));
#71=CARTESIAN_POINT('',(-1.518271002128E-1,-1.494322499606E0,
-1.546166472649E1));
#72=CARTESIAN_POINT('',(-5.166212932948E-2,-1.499794772162E0,
-1.544756639957E1));
#73=CARTESIAN_POINT('',(0.E0,-1.499794772162E0,-1.544756639957E1));
#75=CURVE_STYLE('',#48,POSITIVE_LENGTH_MEASURE(2.E-2),#6);
#76=PRESENTATION_STYLE_ASSIGNMENT((#75));
#77=STYLED_ITEM('',(#76),#74);
#78=DIRECTION('',(5.816750074069E-14,9.961889454782E-1,-8.722147044769E-2));
#79=VECTOR('',#78,6.020846287406E-1);
#80=CARTESIAN_POINT('',(0.E0,-1.499794772162E0,-1.544756639957E1));
#81=LINE('',#80,#79);
#82=CURVE_STYLE('',#48,POSITIVE_LENGTH_MEASURE(2.E-2),#6);
#83=PRESENTATION_STYLE_ASSIGNMENT((#82));
#84=STYLED_ITEM('',(#83),#81);
#85=DIRECTION('',(0.E0,0.E0,1.E0));
#86=VECTOR('',#85,2.2E1);
#87=CARTESIAN_POINT('',(-3.558372392744E-14,1.499719412231E0,-2.2E1));
#88=LINE('',#87,#86);
#89=CURVE_STYLE('',#48,POSITIVE_LENGTH_MEASURE(2.E-2),#6);
#90=PRESENTATION_STYLE_ASSIGNMENT((#89));
#91=STYLED_ITEM('',(#90),#88);
#92=DIRECTION('',(0.E0,4.878433832096E-6,9.999999999881E-1));
#93=VECTOR('',#92,1.544756639975E1);
#94=CARTESIAN_POINT('',(0.E0,-1.499794772162E0,-1.544756639957E1));
#95=LINE('',#94,#93);
#96=CURVE_STYLE('',#48,POSITIVE_LENGTH_MEASURE(2.E-2),#6);
#97=PRESENTATION_STYLE_ASSIGNMENT((#96));
#98=STYLED_ITEM('',(#97),#95);
#99=DIRECTION('',(0.E0,-1.383368737766E-5,9.999999999043E-1));
#100=VECTOR('',#99,5.447566400088E0);
#101=CARTESIAN_POINT('',(-2.380718526664E-14,-1.499719412231E0,-2.2E1));
#102=LINE('',#101,#100);
#103=CURVE_STYLE('',#48,POSITIVE_LENGTH_MEASURE(2.E-2),#6);
#104=PRESENTATION_STYLE_ASSIGNMENT((#103));
#105=STYLED_ITEM('',(#104),#102);
#106=CARTESIAN_POINT('',(0.E0,-1.499794772162E0,-1.544756639957E1));
#107=CARTESIAN_POINT('',(5.107657292450E-2,-1.499794772162E0,
-1.544756639957E1));
#108=CARTESIAN_POINT('',(1.498948882393E-1,-1.494363787036E0,
-1.546159342357E1));
#109=CARTESIAN_POINT('',(2.912155701987E-1,-1.473138058893E0,
-1.552493815715E1));
#110=CARTESIAN_POINT('',(4.114503149305E-1,-1.443415731117E0,
-1.562755603356E1));
#111=CARTESIAN_POINT('',(5.000520383534E-1,-1.414333266250E0,
-1.576464986516E1));
#112=CARTESIAN_POINT('',(5.450353927793E-1,-1.397045774835E0,
-1.591844091658E1));
#113=CARTESIAN_POINT('',(5.452812370543E-1,-1.396939758051E0,
-1.607735563145E1));
#114=CARTESIAN_POINT('',(5.034830376011E-1,-1.413049371595E0,
-1.622671440500E1));
#115=CARTESIAN_POINT('',(4.185657470316E-1,-1.441291636652E0,
-1.636419387216E1));
#116=CARTESIAN_POINT('',(2.985826816064E-1,-1.471775254727E0,
-1.647092437962E1));
#117=CARTESIAN_POINT('',(1.518315587078E-1,-1.494321560090E0,
-1.653833207452E1));
#118=CARTESIAN_POINT('',(5.166387347719E-2,-1.499794772162E0,
-1.655243360043E1));
#119=CARTESIAN_POINT('',(0.E0,-1.499794772162E0,-1.655243360043E1));
#121=CURVE_STYLE('',#48,POSITIVE_LENGTH_MEASURE(2.E-2),#6);
#122=PRESENTATION_STYLE_ASSIGNMENT((#121));
#123=STYLED_ITEM('',(#122),#120);
#124=DIRECTION('',(5.982334763802E-14,9.961889454782E-1,8.722147044766E-2));
#125=VECTOR('',#124,6.020846287406E-1);
#126=CARTESIAN_POINT('',(0.E0,-1.499794772162E0,-1.655243360043E1));
#127=LINE('',#126,#125);
#128=CURVE_STYLE('',#48,POSITIVE_LENGTH_MEASURE(2.E-2),#6);
#129=PRESENTATION_STYLE_ASSIGNMENT((#128));
#130=STYLED_ITEM('',(#129),#127);
#131=CARTESIAN_POINT('',(2.323141638661E-14,-8.999999879795E-1,-1.6E1));
#132=DIRECTION('',(-3.358139137745E-14,1.E0,0.E0));
#133=DIRECTION('',(2.989790758866E-14,0.E0,1.E0));
#134=AXIS2_PLACEMENT_3D('',#131,#132,#133);
#136=CURVE_STYLE('',#48,POSITIVE_LENGTH_MEASURE(2.E-2),#6);
#137=PRESENTATION_STYLE_ASSIGNMENT((#136));
#138=STYLED_ITEM('',(#137),#135);
#139=CARTESIAN_POINT('',(2.323324167013E-14,-9.000543419964E-1,-1.6E1));
#140=DIRECTION('',(-1.E0,-3.358139137745E-14,1.573887628143E-14));
#141=DIRECTION('',(3.358139137745E-14,-1.E0,0.E0));
#142=AXIS2_PLACEMENT_3D('',#139,#140,#141);
#144=CURVE_STYLE('',#48,POSITIVE_LENGTH_MEASURE(2.E-2),#6);
#145=PRESENTATION_STYLE_ASSIGNMENT((#144));
#146=STYLED_ITEM('',(#145),#143);
#147=CARTESIAN_POINT('',(-1.948441408217E-14,0.E0,0.E0));
#148=DIRECTION('',(0.E0,0.E0,-1.E0));
#149=DIRECTION('',(-1.099120794379E-14,1.E0,0.E0));
#150=AXIS2_PLACEMENT_3D('',#147,#148,#149);
#152=CURVE_STYLE('',#48,POSITIVE_LENGTH_MEASURE(2.E-2),#6);
#153=PRESENTATION_STYLE_ASSIGNMENT((#152));
#154=STYLED_ITEM('',(#153),#151);
#155=CARTESIAN_POINT('',(0.E0,0.E0,0.E0));
#156=DIRECTION('',(0.E0,0.E0,-1.E0));
#157=DIRECTION('',(-2.316665378051E-14,-1.E0,0.E0));
#158=AXIS2_PLACEMENT_3D('',#155,#156,#157);
#160=CURVE_STYLE('',#48,POSITIVE_LENGTH_MEASURE(2.E-2),#6);
#161=PRESENTATION_STYLE_ASSIGNMENT((#160));
#162=STYLED_ITEM('',(#161),#159);
#163=CARTESIAN_POINT('',(0.E0,0.E0,-2.2E1));
#164=DIRECTION('',(0.E0,0.E0,1.E0));
#165=DIRECTION('',(-2.346271325375E-14,1.E0,0.E0));
#166=AXIS2_PLACEMENT_3D('',#163,#164,#165);
#168=CURVE_STYLE('',#48,POSITIVE_LENGTH_MEASURE(2.E-2),#6);
#169=PRESENTATION_STYLE_ASSIGNMENT((#168));
#170=STYLED_ITEM('',(#169),#167);
#171=CARTESIAN_POINT('',(-1.948441408217E-14,0.E0,-2.2E1));
#172=DIRECTION('',(0.E0,0.E0,1.E0));
#173=DIRECTION('',(-1.099120794379E-14,-1.E0,0.E0));
#174=AXIS2_PLACEMENT_3D('',#171,#172,#173);
#176=CURVE_STYLE('',#48,POSITIVE_LENGTH_MEASURE(2.E-2),#6);
#177=PRESENTATION_STYLE_ASSIGNMENT((#176));
#178=STYLED_ITEM('',(#177),#175);
#179=CARTESIAN_POINT('',(1.925681836212E-13,0.E0,-2.2E1));
#180=DIRECTION('',(0.E0,0.E0,-1.E0));
#181=DIRECTION('',(-1.743477157517E-13,1.E0,0.E0));
#182=AXIS2_PLACEMENT_3D('',#179,#180,#181);
#184=CURVE_STYLE('',#48,POSITIVE_LENGTH_MEASURE(2.E-2),#6);
#185=PRESENTATION_STYLE_ASSIGNMENT((#184));
#186=STYLED_ITEM('',(#185),#183);
#187=CARTESIAN_POINT('',(-2.135513987866E-13,0.E0,-2.2E1));
#188=DIRECTION('',(0.E0,0.E0,-1.E0));
#189=DIRECTION('',(1.389913825060E-13,-1.E0,0.E0));
#190=AXIS2_PLACEMENT_3D('',#187,#188,#189);
#192=CURVE_STYLE('',#48,POSITIVE_LENGTH_MEASURE(2.E-2),#6);
#193=PRESENTATION_STYLE_ASSIGNMENT((#192));
#194=STYLED_ITEM('',(#193),#191);
#195=DIRECTION('',(0.E0,0.E0,1.E0));
#196=VECTOR('',#195,1.E1);
#197=CARTESIAN_POINT('',(-3.342700935836E-14,-1.299756823934E0,-3.2E1));
#198=LINE('',#197,#196);
#199=CURVE_STYLE('',#48,POSITIVE_LENGTH_MEASURE(2.E-2),#6);
#200=PRESENTATION_STYLE_ASSIGNMENT((#199));
#201=STYLED_ITEM('',(#200),#198);
#202=CARTESIAN_POINT('',(1.925681836212E-13,0.E0,-3.2E1));
#203=DIRECTION('',(0.E0,0.E0,1.E0));
#204=DIRECTION('',(-1.741769122095E-13,-1.E0,0.E0));
#205=AXIS2_PLACEMENT_3D('',#202,#203,#204);
#207=CURVE_STYLE('',#48,POSITIVE_LENGTH_MEASURE(2.E-2),#6);
#208=PRESENTATION_STYLE_ASSIGNMENT((#207));
#209=STYLED_ITEM('',(#208),#206);
#210=CARTESIAN_POINT('',(-2.135513987866E-13,0.E0,-3.2E1));
#211=DIRECTION('',(0.E0,0.E0,1.E0));
#212=DIRECTION('',(1.388205789637E-13,1.E0,0.E0));
#213=AXIS2_PLACEMENT_3D('',#210,#211,#212);
#215=CURVE_STYLE('',#48,POSITIVE_LENGTH_MEASURE(2.E-2),#6);
#216=PRESENTATION_STYLE_ASSIGNMENT((#215));
#217=STYLED_ITEM('',(#216),#214);
#218=DIRECTION('',(0.E0,0.E0,1.E0));
#219=VECTOR('',#218,1.E1);
#220=CARTESIAN_POINT('',(-3.288929076711E-14,1.299756823934E0,-3.2E1));
#221=LINE('',#220,#219);
#222=CURVE_STYLE('',#48,POSITIVE_LENGTH_MEASURE(2.E-2),#6);
#223=PRESENTATION_STYLE_ASSIGNMENT((#222));
#224=STYLED_ITEM('',(#223),#221);
#225=CARTESIAN_POINT('',(4.198075116397E-14,-8.999999879795E-1,
-1.649994565800E1));
#226=CARTESIAN_POINT('',(2.101820980437E-14,-8.999999879795E-1,
-1.550005434200E1));
#227=VERTEX_POINT('',#225);
#228=VERTEX_POINT('',#226);
#229=CARTESIAN_POINT('',(4.002211257822E-14,-1.400000002955E0,-1.6E1));
#230=VERTEX_POINT('',#229);
#231=VERTEX_POINT('',#60);
#232=VERTEX_POINT('',#73);
#233=CARTESIAN_POINT('',(-2.380718526664E-14,-1.499719412231E0,-2.2E1));
#234=VERTEX_POINT('',#233);
#235=CARTESIAN_POINT('',(-3.640544018216E-14,1.499579118347E0,-2.2E1));
#236=VERTEX_POINT('',#235);
#237=CARTESIAN_POINT('',(-3.543569419083E-14,1.499719412231E0,
-1.065814103640E-14));
#238=VERTEX_POINT('',#237);
#239=CARTESIAN_POINT('',(-3.596147557831E-14,-1.499579118347E0,0.E0));
#240=VERTEX_POINT('',#239);
#241=CARTESIAN_POINT('',(-3.402025106843E-14,1.299635235900E0,-2.2E1));
#242=CARTESIAN_POINT('',(-3.259579779069E-14,-1.299635235900E0,-2.2E1));
#243=VERTEX_POINT('',#241);
#244=VERTEX_POINT('',#242);
#245=CARTESIAN_POINT('',(-3.379826876649E-14,-1.299635235900E0,-3.2E1));
#246=CARTESIAN_POINT('',(-3.281778009263E-14,1.299635235900E0,-3.2E1));
#247=VERTEX_POINT('',#245);
#248=VERTEX_POINT('',#246);
#249=CARTESIAN_POINT('',(2.931104866565E-14,-9.000543419964E-1,-1.6E1));
#250=DIRECTION('',(2.136129749593E-14,-1.E0,0.E0));
#251=DIRECTION('',(0.E0,0.E0,1.E0));
#252=AXIS2_PLACEMENT_3D('',#249,#250,#251);
#253=SPHERICAL_SURFACE('',#252,4.999456609582E-1);
#255=ORIENTED_EDGE('',*,*,#254,.T.);
#257=ORIENTED_EDGE('',*,*,#256,.F.);
#259=ORIENTED_EDGE('',*,*,#258,.T.);
#260=EDGE_LOOP('',(#255,#257,#259));
#261=FACE_OUTER_BOUND('',#260,.F.);
#262=ADVANCED_FACE('',(#261),#253,.T.);
#263=FILL_AREA_STYLE_COLOUR('',#6);
#264=FILL_AREA_STYLE('',(#263));
#265=SURFACE_STYLE_FILL_AREA(#264);
#266=SURFACE_SIDE_STYLE('',(#265));
#267=SURFACE_STYLE_USAGE(.POSITIVE.,#266);
#268=FILL_AREA_STYLE_COLOUR('',#27);
#269=FILL_AREA_STYLE('',(#268));
#270=SURFACE_STYLE_FILL_AREA(#269);
#271=SURFACE_SIDE_STYLE('',(#270));
#272=SURFACE_STYLE_USAGE(.NEGATIVE.,#271);
#273=PRESENTATION_STYLE_ASSIGNMENT((#267,#272));
#274=OVER_RIDING_STYLED_ITEM('',(#273),#262,#42);
#275=CARTESIAN_POINT('',(2.231199850175E-12,-1.200003579415E0,-1.6E1));
#276=DIRECTION('',(7.339453119335E-12,-1.E0,0.E0));
#277=DIRECTION('',(-4.166849262360E-12,0.E0,1.E0));
#278=AXIS2_PLACEMENT_3D('',#275,#276,#277);
#279=CONICAL_SURFACE('',#278,5.261325106110E-1,4.998918551140E0);
#281=ORIENTED_EDGE('',*,*,#280,.T.);
#283=ORIENTED_EDGE('',*,*,#282,.T.);
#284=ORIENTED_EDGE('',*,*,#254,.F.);
#286=ORIENTED_EDGE('',*,*,#285,.F.);
#287=EDGE_LOOP('',(#281,#283,#284,#286));
#288=FACE_OUTER_BOUND('',#287,.F.);
#289=ADVANCED_FACE('',(#288),#279,.F.);
#290=FILL_AREA_STYLE_COLOUR('',#6);
#291=FILL_AREA_STYLE('',(#290));
#292=SURFACE_STYLE_FILL_AREA(#291);
#293=SURFACE_SIDE_STYLE('',(#292));
#294=SURFACE_STYLE_USAGE(.POSITIVE.,#293);
#295=FILL_AREA_STYLE_COLOUR('',#27);
#296=FILL_AREA_STYLE('',(#295));
#297=SURFACE_STYLE_FILL_AREA(#296);
#298=SURFACE_SIDE_STYLE('',(#297));
#299=SURFACE_STYLE_USAGE(.NEGATIVE.,#298);
#300=PRESENTATION_STYLE_ASSIGNMENT((#294,#299));
#301=OVER_RIDING_STYLED_ITEM('',(#300),#289,#42);
#302=CARTESIAN_POINT('',(0.E0,0.E0,-1.1E1));
#303=DIRECTION('',(0.E0,0.E0,-1.E0));
#304=DIRECTION('',(-2.420286193683E-14,-1.E0,0.E0));
#305=AXIS2_PLACEMENT_3D('',#302,#303,#304);
#306=CYLINDRICAL_SURFACE('',#305,1.499579118347E0);
#307=ORIENTED_EDGE('',*,*,#280,.F.);
#309=ORIENTED_EDGE('',*,*,#308,.F.);
#311=ORIENTED_EDGE('',*,*,#310,.F.);
#313=ORIENTED_EDGE('',*,*,#312,.T.);
#315=ORIENTED_EDGE('',*,*,#314,.F.);
#317=ORIENTED_EDGE('',*,*,#316,.F.);
#318=EDGE_LOOP('',(#307,#309,#311,#313,#315,#317));
#319=FACE_OUTER_BOUND('',#318,.F.);
#320=ADVANCED_FACE('',(#319),#306,.T.);
#321=FILL_AREA_STYLE_COLOUR('',#17);
#322=FILL_AREA_STYLE('',(#321));
#323=SURFACE_STYLE_FILL_AREA(#322);
#324=SURFACE_SIDE_STYLE('',(#323));
#325=SURFACE_STYLE_USAGE(.POSITIVE.,#324);
#326=FILL_AREA_STYLE_COLOUR('',#27);
#327=FILL_AREA_STYLE('',(#326));
#328=SURFACE_STYLE_FILL_AREA(#327);
#329=SURFACE_SIDE_STYLE('',(#328));
#330=SURFACE_STYLE_USAGE(.NEGATIVE.,#329);
#331=PRESENTATION_STYLE_ASSIGNMENT((#325,#330));
#332=OVER_RIDING_STYLED_ITEM('',(#331),#320,#42);
#333=CARTESIAN_POINT('',(-1.948441408217E-14,0.E0,-1.1E1));
#334=DIRECTION('',(0.E0,0.E0,-1.E0));
#335=DIRECTION('',(-1.010302952409E-14,1.E0,0.E0));
#336=AXIS2_PLACEMENT_3D('',#333,#334,#335);
#337=CYLINDRICAL_SURFACE('',#336,1.499579118347E0);
#339=ORIENTED_EDGE('',*,*,#338,.F.);
#340=ORIENTED_EDGE('',*,*,#316,.T.);
#342=ORIENTED_EDGE('',*,*,#341,.F.);
#343=ORIENTED_EDGE('',*,*,#312,.F.);
#345=ORIENTED_EDGE('',*,*,#344,.F.);
#346=ORIENTED_EDGE('',*,*,#308,.T.);
#347=EDGE_LOOP('',(#339,#340,#342,#343,#345,#346));
#348=FACE_OUTER_BOUND('',#347,.F.);
#349=ADVANCED_FACE('',(#348),#337,.T.);
#350=FILL_AREA_STYLE_COLOUR('',#17);
#351=FILL_AREA_STYLE('',(#350));
#352=SURFACE_STYLE_FILL_AREA(#351);
#353=SURFACE_SIDE_STYLE('',(#352));
#354=SURFACE_STYLE_USAGE(.POSITIVE.,#353);
#355=FILL_AREA_STYLE_COLOUR('',#27);
#356=FILL_AREA_STYLE('',(#355));
#357=SURFACE_STYLE_FILL_AREA(#356);
#358=SURFACE_SIDE_STYLE('',(#357));
#359=SURFACE_STYLE_USAGE(.NEGATIVE.,#358);
#360=PRESENTATION_STYLE_ASSIGNMENT((#354,#359));
#361=OVER_RIDING_STYLED_ITEM('',(#360),#349,#42);
#362=CARTESIAN_POINT('',(-2.203680496157E-12,-1.200003579415E0,-1.6E1));
#363=DIRECTION('',(-7.423043661230E-12,-1.E0,0.E0));
#364=DIRECTION('',(4.266258349584E-12,0.E0,-1.E0));
#365=AXIS2_PLACEMENT_3D('',#362,#363,#364);
#366=CONICAL_SURFACE('',#365,5.261325106110E-1,4.998918551140E0);
#367=ORIENTED_EDGE('',*,*,#338,.T.);
#368=ORIENTED_EDGE('',*,*,#285,.T.);
#370=ORIENTED_EDGE('',*,*,#369,.F.);
#371=ORIENTED_EDGE('',*,*,#282,.F.);
#372=EDGE_LOOP('',(#367,#368,#370,#371));
#373=FACE_OUTER_BOUND('',#372,.F.);
#374=ADVANCED_FACE('',(#373),#366,.F.);
#375=FILL_AREA_STYLE_COLOUR('',#6);
#376=FILL_AREA_STYLE('',(#375));
#377=SURFACE_STYLE_FILL_AREA(#376);
#378=SURFACE_SIDE_STYLE('',(#377));
#379=SURFACE_STYLE_USAGE(.POSITIVE.,#378);
#380=FILL_AREA_STYLE_COLOUR('',#27);
#381=FILL_AREA_STYLE('',(#380));
#382=SURFACE_STYLE_FILL_AREA(#381);
#383=SURFACE_SIDE_STYLE('',(#382));
#384=SURFACE_STYLE_USAGE(.NEGATIVE.,#383);
#385=PRESENTATION_STYLE_ASSIGNMENT((#379,#384));
#386=OVER_RIDING_STYLED_ITEM('',(#385),#374,#42);
#387=CARTESIAN_POINT('',(2.323324167013E-14,-9.000543419964E-1,-1.6E1));
#388=DIRECTION('',(3.358139137745E-14,-1.E0,0.E0));
#389=DIRECTION('',(1.369347220405E-14,0.E0,-1.E0));
#390=AXIS2_PLACEMENT_3D('',#387,#388,#389);
#391=SPHERICAL_SURFACE('',#390,4.999456609582E-1);
#392=ORIENTED_EDGE('',*,*,#369,.T.);
#393=ORIENTED_EDGE('',*,*,#258,.F.);
#394=ORIENTED_EDGE('',*,*,#256,.T.);
#395=EDGE_LOOP('',(#392,#393,#394));
#396=FACE_OUTER_BOUND('',#395,.F.);
#397=ADVANCED_FACE('',(#396),#391,.T.);
#398=FILL_AREA_STYLE_COLOUR('',#6);
#399=FILL_AREA_STYLE('',(#398));
#400=SURFACE_STYLE_FILL_AREA(#399);
#401=SURFACE_SIDE_STYLE('',(#400));
#402=SURFACE_STYLE_USAGE(.POSITIVE.,#401);
#403=FILL_AREA_STYLE_COLOUR('',#27);
#404=FILL_AREA_STYLE('',(#403));
#405=SURFACE_STYLE_FILL_AREA(#404);
#406=SURFACE_SIDE_STYLE('',(#405));
#407=SURFACE_STYLE_USAGE(.NEGATIVE.,#406);
#408=PRESENTATION_STYLE_ASSIGNMENT((#402,#407));
#409=OVER_RIDING_STYLED_ITEM('',(#408),#397,#42);
#410=CARTESIAN_POINT('',(-3.552713678801E-14,-2.697841949839E-14,-2.9E-14));
#411=DIRECTION('',(0.E0,0.E0,1.E0));
#412=DIRECTION('',(0.E0,1.E0,0.E0));
#413=AXIS2_PLACEMENT_3D('',#410,#411,#412);
#414=PLANE('',#413);
#415=ORIENTED_EDGE('',*,*,#341,.T.);
#416=ORIENTED_EDGE('',*,*,#314,.T.);
#417=EDGE_LOOP('',(#415,#416));
#418=FACE_OUTER_BOUND('',#417,.F.);
#419=ADVANCED_FACE('',(#418),#414,.T.);
#420=FILL_AREA_STYLE_COLOUR('',#17);
#421=FILL_AREA_STYLE('',(#420));
#422=SURFACE_STYLE_FILL_AREA(#421);
#423=SURFACE_SIDE_STYLE('',(#422));
#424=SURFACE_STYLE_USAGE(.POSITIVE.,#423);
#425=FILL_AREA_STYLE_COLOUR('',#27);
#426=FILL_AREA_STYLE('',(#425));
#427=SURFACE_STYLE_FILL_AREA(#426);
#428=SURFACE_SIDE_STYLE('',(#427));
#429=SURFACE_STYLE_USAGE(.NEGATIVE.,#428);
#430=PRESENTATION_STYLE_ASSIGNMENT((#424,#429));
#431=OVER_RIDING_STYLED_ITEM('',(#430),#419,#42);
#432=CARTESIAN_POINT('',(-3.674838211509E-14,-2.697841949839E-14,-2.2E1));
#433=DIRECTION('',(0.E0,0.E0,1.E0));
#434=DIRECTION('',(0.E0,-1.E0,0.E0));
#435=AXIS2_PLACEMENT_3D('',#432,#433,#434);
#436=PLANE('',#435);
#437=ORIENTED_EDGE('',*,*,#310,.T.);
#438=ORIENTED_EDGE('',*,*,#344,.T.);
#439=EDGE_LOOP('',(#437,#438));
#440=FACE_OUTER_BOUND('',#439,.F.);
#442=ORIENTED_EDGE('',*,*,#441,.T.);
#444=ORIENTED_EDGE('',*,*,#443,.T.);
#445=EDGE_LOOP('',(#442,#444));
#446=FACE_BOUND('',#445,.F.);
#447=ADVANCED_FACE('',(#440,#446),#436,.F.);
#448=FILL_AREA_STYLE_COLOUR('',#27);
#449=FILL_AREA_STYLE('',(#448));
#450=SURFACE_STYLE_FILL_AREA(#449);
#451=SURFACE_SIDE_STYLE('',(#450));
#452=SURFACE_STYLE_USAGE(.POSITIVE.,#451);
#453=FILL_AREA_STYLE_COLOUR('',#17);
#454=FILL_AREA_STYLE('',(#453));
#455=SURFACE_STYLE_FILL_AREA(#454);
#456=SURFACE_SIDE_STYLE('',(#455));
#457=SURFACE_STYLE_USAGE(.NEGATIVE.,#456);
#458=PRESENTATION_STYLE_ASSIGNMENT((#452,#457));
#459=OVER_RIDING_STYLED_ITEM('',(#458),#447,#42);
#460=CARTESIAN_POINT('',(1.925681836212E-13,0.E0,-2.7E1));
#461=DIRECTION('',(0.E0,0.E0,-1.E0));
#462=DIRECTION('',(-1.727250821003E-13,1.E0,0.E0));
#463=AXIS2_PLACEMENT_3D('',#460,#461,#462);
#464=CYLINDRICAL_SURFACE('',#463,1.299635235900E0);
#466=ORIENTED_EDGE('',*,*,#465,.F.);
#468=ORIENTED_EDGE('',*,*,#467,.T.);
#469=ORIENTED_EDGE('',*,*,#441,.F.);
#471=ORIENTED_EDGE('',*,*,#470,.F.);
#472=EDGE_LOOP('',(#466,#468,#469,#471));
#473=FACE_OUTER_BOUND('',#472,.F.);
#474=ADVANCED_FACE('',(#473),#464,.T.);
#475=FILL_AREA_STYLE_COLOUR('',#30);
#476=FILL_AREA_STYLE('',(#475));
#477=SURFACE_STYLE_FILL_AREA(#476);
#478=SURFACE_SIDE_STYLE('',(#477));
#479=SURFACE_STYLE_USAGE(.POSITIVE.,#478);
#480=FILL_AREA_STYLE_COLOUR('',#27);
#481=FILL_AREA_STYLE('',(#480));
#482=SURFACE_STYLE_FILL_AREA(#481);
#483=SURFACE_SIDE_STYLE('',(#482));
#484=SURFACE_STYLE_USAGE(.NEGATIVE.,#483);
#485=PRESENTATION_STYLE_ASSIGNMENT((#479,#484));
#486=OVER_RIDING_STYLED_ITEM('',(#485),#474,#42);
#487=CARTESIAN_POINT('',(-3.308464613383E-14,-2.386979502944E-14,-3.2E1));
#488=DIRECTION('',(0.E0,0.E0,1.E0));
#489=DIRECTION('',(0.E0,-1.E0,0.E0));
#490=AXIS2_PLACEMENT_3D('',#487,#488,#489);
#491=PLANE('',#490);
#492=ORIENTED_EDGE('',*,*,#465,.T.);
#494=ORIENTED_EDGE('',*,*,#493,.T.);
#495=EDGE_LOOP('',(#492,#494));
#496=FACE_OUTER_BOUND('',#495,.F.);
#497=ADVANCED_FACE('',(#496),#491,.F.);
#498=FILL_AREA_STYLE_COLOUR('',#6);
#499=FILL_AREA_STYLE('',(#498));
#500=SURFACE_STYLE_FILL_AREA(#499);
#501=SURFACE_SIDE_STYLE('',(#500));
#502=SURFACE_STYLE_USAGE(.POSITIVE.,#501);
#503=FILL_AREA_STYLE_COLOUR('',#30);
#504=FILL_AREA_STYLE('',(#503));
#505=SURFACE_STYLE_FILL_AREA(#504);
#506=SURFACE_SIDE_STYLE('',(#505));
#507=SURFACE_STYLE_USAGE(.NEGATIVE.,#506);
#508=PRESENTATION_STYLE_ASSIGNMENT((#502,#507));
#509=OVER_RIDING_STYLED_ITEM('',(#508),#497,#42);
#510=CARTESIAN_POINT('',(-2.135513987866E-13,0.E0,-2.7E1));
#511=DIRECTION('',(0.E0,0.E0,-1.E0));
#512=DIRECTION('',(1.381373647947E-13,-1.E0,0.E0));
#513=AXIS2_PLACEMENT_3D('',#510,#511,#512);
#514=CYLINDRICAL_SURFACE('',#513,1.299635235900E0);
#515=ORIENTED_EDGE('',*,*,#493,.F.);
#516=ORIENTED_EDGE('',*,*,#470,.T.);
#517=ORIENTED_EDGE('',*,*,#443,.F.);
#518=ORIENTED_EDGE('',*,*,#467,.F.);
#519=EDGE_LOOP('',(#515,#516,#517,#518));
#520=FACE_OUTER_BOUND('',#519,.F.);
#521=ADVANCED_FACE('',(#520),#514,.T.);
#522=FILL_AREA_STYLE_COLOUR('',#30);
#523=FILL_AREA_STYLE('',(#522));
#524=SURFACE_STYLE_FILL_AREA(#523);
#525=SURFACE_SIDE_STYLE('',(#524));
#526=SURFACE_STYLE_USAGE(.POSITIVE.,#525);
#527=FILL_AREA_STYLE_COLOUR('',#27);
#528=FILL_AREA_STYLE('',(#527));
#529=SURFACE_STYLE_FILL_AREA(#528);
#530=SURFACE_SIDE_STYLE('',(#529));
#531=SURFACE_STYLE_USAGE(.NEGATIVE.,#530);
#532=PRESENTATION_STYLE_ASSIGNMENT((#526,#531));
#533=OVER_RIDING_STYLED_ITEM('',(#532),#521,#42);
#534=CLOSED_SHELL('',(#262,#289,#320,#349,#374,#397,#419,#447,#474,#497,#521));
#535=MANIFOLD_SOLID_BREP('',#534);
#536=FILL_AREA_STYLE_COLOUR('',#6);
#537=FILL_AREA_STYLE('',(#536));
#538=SURFACE_STYLE_FILL_AREA(#537);
#539=SURFACE_SIDE_STYLE('',(#538));
#540=SURFACE_STYLE_USAGE(.BOTH.,#539);
#541=PRESENTATION_STYLE_ASSIGNMENT((#540));
#42=STYLED_ITEM('',(#541),#535);
#542=(LENGTH_UNIT()NAMED_UNIT(*)SI_UNIT(.MILLI.,.METRE.));
#543=DIMENSIONAL_EXPONENTS(0.E0,0.E0,0.E0,0.E0,0.E0,0.E0,0.E0);
#544=(NAMED_UNIT(*)PLANE_ANGLE_UNIT()SI_UNIT($,.RADIAN.));
#545=PLANE_ANGLE_MEASURE_WITH_UNIT(PLANE_ANGLE_MEASURE(1.745329251994E-2),#544);
#546=(CONVERSION_BASED_UNIT('DEGREE',#545)NAMED_UNIT(#543)PLANE_ANGLE_UNIT());
#547=(NAMED_UNIT(*)SI_UNIT($,.STERADIAN.)SOLID_ANGLE_UNIT());
#548=UNCERTAINTY_MEASURE_WITH_UNIT(LENGTH_MEASURE(3.227873387052E-3),#542,
'closure',
'Maximum model space distance between geometric entities at asserted connectivities');
#549=(GEOMETRIC_REPRESENTATION_CONTEXT(3)GLOBAL_UNCERTAINTY_ASSIGNED_CONTEXT((
#548))GLOBAL_UNIT_ASSIGNED_CONTEXT((#542,#546,#547))REPRESENTATION_CONTEXT
('ID1','3'));
#551=MECHANICAL_DESIGN_GEOMETRIC_PRESENTATION_REPRESENTATION('',(#51,#59,#77,
#84,#91,#98,#105,#123,#130,#138,#146,#154,#162,#170,#178,#186,#194,#201,#209,
#217,#224,#274,#301,#332,#361,#386,#409,#431,#459,#486,#509,#533,#42),#549);
#552=APPLICATION_CONTEXT(
'CONFIGURATION CONTROLLED 3D DESIGNS OF MECHANICAL PARTS AND ASSEMBLIES');
#553=APPLICATION_PROTOCOL_DEFINITION('international standard',
'config_control_design',1994,#552);
#554=DESIGN_CONTEXT('',#552,'design');
#555=MECHANICAL_CONTEXT('',#552,'mechanical');
#556=PRODUCT('CAD0974_B','CAD0974_B','NOT SPECIFIED',(#555));
#557=PRODUCT_DEFINITION_FORMATION_WITH_SPECIFIED_SOURCE('1','LAST_VERSION',#556,
.MADE.);
#561=PRODUCT_CATEGORY('part','');
#562=PRODUCT_RELATED_PRODUCT_CATEGORY('detail','',(#556));
#563=PRODUCT_CATEGORY_RELATIONSHIP('','',#561,#562);
#564=SECURITY_CLASSIFICATION_LEVEL('unclassified');
#565=SECURITY_CLASSIFICATION('','',#564);
#566=CC_DESIGN_SECURITY_CLASSIFICATION(#565,(#557));
#567=APPROVAL_STATUS('approved');
#568=APPROVAL(#567,'');
#569=CC_DESIGN_APPROVAL(#568,(#565,#557,#558));
#570=CALENDAR_DATE(108,26,5);
#571=COORDINATED_UNIVERSAL_TIME_OFFSET(3,0,.AHEAD.);
#572=LOCAL_TIME(16,11,1.5E1,#571);
#573=DATE_AND_TIME(#570,#572);
#574=APPROVAL_DATE_TIME(#573,#568);
#575=DATE_TIME_ROLE('creation_date');
#576=CC_DESIGN_DATE_AND_TIME_ASSIGNMENT(#573,#575,(#558));
#577=DATE_TIME_ROLE('classification_date');
#578=CC_DESIGN_DATE_AND_TIME_ASSIGNMENT(#573,#577,(#565));
#579=PERSON('UNSPECIFIED','UNSPECIFIED',$,$,$,$);
#580=ORGANIZATION('UNSPECIFIED','UNSPECIFIED','UNSPECIFIED');
#581=PERSON_AND_ORGANIZATION(#579,#580);
#582=APPROVAL_ROLE('approver');
#583=APPROVAL_PERSON_ORGANIZATION(#581,#568,#582);
#584=PERSON_AND_ORGANIZATION_ROLE('creator');
#585=CC_DESIGN_PERSON_AND_ORGANIZATION_ASSIGNMENT(#581,#584,(#557,#558));
#586=PERSON_AND_ORGANIZATION_ROLE('design_supplier');
#587=CC_DESIGN_PERSON_AND_ORGANIZATION_ASSIGNMENT(#581,#586,(#557));
#588=PERSON_AND_ORGANIZATION_ROLE('classification_officer');
#589=CC_DESIGN_PERSON_AND_ORGANIZATION_ASSIGNMENT(#581,#588,(#565));
#590=PERSON_AND_ORGANIZATION_ROLE('design_owner');
#591=CC_DESIGN_PERSON_AND_ORGANIZATION_ASSIGNMENT(#581,#590,(#556));
#47=CIRCLE('',#46,4.999456580035E-1);
#56=CIRCLE('',#55,4.999456609582E-1);
#74=B_SPLINE_CURVE_WITH_KNOTS('',3,(#60,#61,#62,#63,#64,#65,#66,#67,#68,#69,#70,
#71,#72,#73),.UNSPECIFIED.,.F.,.F.,(4,1,1,1,1,1,1,1,1,1,1,4),(0.E0,
9.090909090909E-2,1.818181818182E-1,2.727272727273E-1,3.636363636364E-1,
4.545454545455E-1,5.454545454545E-1,6.363636363636E-1,7.272727272727E-1,
8.181818181818E-1,9.090909090909E-1,1.E0),.UNSPECIFIED.);
#120=B_SPLINE_CURVE_WITH_KNOTS('',3,(#106,#107,#108,#109,#110,#111,#112,#113,
#114,#115,#116,#117,#118,#119),.UNSPECIFIED.,.F.,.F.,(4,1,1,1,1,1,1,1,1,1,1,4),(
0.E0,9.090909090909E-2,1.818181818182E-1,2.727272727273E-1,3.636363636364E-1,
4.545454545455E-1,5.454545454545E-1,6.363636363636E-1,7.272727272727E-1,
8.181818181818E-1,9.090909090909E-1,1.E0),.UNSPECIFIED.);
#135=CIRCLE('',#134,4.999456580035E-1);
#143=CIRCLE('',#142,4.999456609582E-1);
#151=CIRCLE('',#150,1.499579118347E0);
#159=CIRCLE('',#158,1.499579118347E0);
#167=CIRCLE('',#166,1.499579118347E0);
#175=CIRCLE('',#174,1.499579118347E0);
#183=CIRCLE('',#182,1.299635235900E0);
#191=CIRCLE('',#190,1.299635235900E0);
#206=CIRCLE('',#205,1.299635235900E0);
#214=CIRCLE('',#213,1.299635235900E0);
#254=EDGE_CURVE('',#227,#228,#47,.T.);
#256=EDGE_CURVE('',#230,#228,#143,.T.);
#258=EDGE_CURVE('',#230,#227,#56,.T.);
#280=EDGE_CURVE('',#231,#232,#74,.T.);
#282=EDGE_CURVE('',#232,#228,#81,.T.);
#285=EDGE_CURVE('',#231,#227,#127,.T.);
#308=EDGE_CURVE('',#234,#231,#102,.T.);
#310=EDGE_CURVE('',#236,#234,#167,.T.);
#312=EDGE_CURVE('',#236,#238,#88,.T.);
#314=EDGE_CURVE('',#240,#238,#159,.T.);
#316=EDGE_CURVE('',#232,#240,#95,.T.);
#338=EDGE_CURVE('',#232,#231,#120,.T.);
#341=EDGE_CURVE('',#238,#240,#151,.T.);
#344=EDGE_CURVE('',#234,#236,#175,.T.);
#369=EDGE_CURVE('',#228,#227,#135,.T.);
#441=EDGE_CURVE('',#243,#244,#183,.T.);
#443=EDGE_CURVE('',#244,#243,#191,.T.);
#465=EDGE_CURVE('',#247,#248,#206,.T.);
#467=EDGE_CURVE('',#247,#244,#198,.T.);
#470=EDGE_CURVE('',#248,#243,#221,.T.);
#493=EDGE_CURVE('',#248,#247,#214,.T.);
#550=ADVANCED_BREP_SHAPE_REPRESENTATION('',(#535),#549);
#558=PRODUCT_DEFINITION('design','',#557,#554);
#559=PRODUCT_DEFINITION_SHAPE('','SHAPE FOR CAD0974_B.',#558);
#560=SHAPE_DEFINITION_REPRESENTATION(#559,#550);
ENDSEC;
END-ISO-10303-21;
