ISO-10303-21;
HEADER;
FILE_DESCRIPTION((''),'2;1');
FILE_NAME('922LC5','2009-01-26T',('steven.hensel'),('Pepperl+Fuchs'),
'PRO/ENGINEER BY PARAMETRIC TECHNOLOGY CORPORATION, 2007390',
'PRO/ENGINEER BY PARAMETRIC TECHNOLOGY CORPORATION, 2007390','');
FILE_SCHEMA(('AUTOMOTIVE_DESIGN_CC2 { 1 2 10303 214 -1 1 5 2 }'));
ENDSEC;
DATA;
#1=COLOUR_RGB('',0.E0,6.E-1,4.E-1);
#2=DRAUGHTING_PRE_DEFINED_COLOUR('green');
#3=COLOUR_RGB('',1.1E-2,1.2E-2,1.E0);
#4=COLOUR_RGB('',1.1E-1,1.1E-1,1.1E-1);
#5=COLOUR_RGB('',3.92E-1,1.2E-2,1.2E-2);
#6=COLOUR_RGB('',4.1E-1,0.E0,2.2E-1);
#7=COLOUR_RGB('',8.784E-1,9.49E-1,1.E0);
#8=COLOUR_RGB('',9.6E-1,9.6E-1,9.6E-1);
#9=COLOUR_RGB('',9.8E-1,6.27E-1,0.E0);
#10=DRAUGHTING_PRE_DEFINED_COLOUR('red');
#11=DRAUGHTING_PRE_DEFINED_COLOUR('yellow');
#12=COLOUR_RGB('',1.E0,1.E0,9.49E-1);
#13=DRAUGHTING_PRE_DEFINED_COLOUR('white');
#15=CARTESIAN_POINT('',(-9.16E-1,0.E0,2.55E0));
#16=DIRECTION('',(0.E0,-1.E0,0.E0));
#17=DIRECTION('',(1.E0,0.E0,0.E0));
#18=AXIS2_PLACEMENT_3D('',#15,#16,#17);
#20=DRAUGHTING_PRE_DEFINED_CURVE_FONT('continuous');
#21=CURVE_STYLE('',#20,POSITIVE_LENGTH_MEASURE(2.E-2),#1);
#22=PRESENTATION_STYLE_ASSIGNMENT((#21));
#23=STYLED_ITEM('',(#22),#19);
#24=CARTESIAN_POINT('',(-9.16E-1,0.E0,2.55E0));
#25=DIRECTION('',(0.E0,-1.E0,0.E0));
#26=DIRECTION('',(-1.E0,0.E0,0.E0));
#27=AXIS2_PLACEMENT_3D('',#24,#25,#26);
#29=CURVE_STYLE('',#20,POSITIVE_LENGTH_MEASURE(2.E-2),#1);
#30=PRESENTATION_STYLE_ASSIGNMENT((#29));
#31=STYLED_ITEM('',(#30),#28);
#32=CARTESIAN_POINT('',(-9.16E-1,0.E0,-2.55E0));
#33=DIRECTION('',(0.E0,-1.E0,0.E0));
#34=DIRECTION('',(1.E0,0.E0,0.E0));
#35=AXIS2_PLACEMENT_3D('',#32,#33,#34);
#37=CURVE_STYLE('',#20,POSITIVE_LENGTH_MEASURE(2.E-2),#1);
#38=PRESENTATION_STYLE_ASSIGNMENT((#37));
#39=STYLED_ITEM('',(#38),#36);
#40=CARTESIAN_POINT('',(-9.16E-1,0.E0,-2.55E0));
#41=DIRECTION('',(0.E0,-1.E0,0.E0));
#42=DIRECTION('',(-1.E0,0.E0,0.E0));
#43=AXIS2_PLACEMENT_3D('',#40,#41,#42);
#45=CURVE_STYLE('',#20,POSITIVE_LENGTH_MEASURE(2.E-2),#1);
#46=PRESENTATION_STYLE_ASSIGNMENT((#45));
#47=STYLED_ITEM('',(#46),#44);
#48=CARTESIAN_POINT('',(1.584E0,0.E0,0.E0));
#49=DIRECTION('',(0.E0,-1.E0,0.E0));
#50=DIRECTION('',(1.E0,0.E0,0.E0));
#51=AXIS2_PLACEMENT_3D('',#48,#49,#50);
#53=CURVE_STYLE('',#20,POSITIVE_LENGTH_MEASURE(2.E-2),#1);
#54=PRESENTATION_STYLE_ASSIGNMENT((#53));
#55=STYLED_ITEM('',(#54),#52);
#56=CARTESIAN_POINT('',(1.584E0,0.E0,0.E0));
#57=DIRECTION('',(0.E0,-1.E0,0.E0));
#58=DIRECTION('',(-1.E0,0.E0,0.E0));
#59=AXIS2_PLACEMENT_3D('',#56,#57,#58);
#61=CURVE_STYLE('',#20,POSITIVE_LENGTH_MEASURE(2.E-2),#1);
#62=PRESENTATION_STYLE_ASSIGNMENT((#61));
#63=STYLED_ITEM('',(#62),#60);
#64=DIRECTION('',(0.E0,1.E0,0.E0));
#65=VECTOR('',#64,1.8E0);
#66=CARTESIAN_POINT('',(4.75E0,0.E0,0.E0));
#67=LINE('',#66,#65);
#68=CURVE_STYLE('',#20,POSITIVE_LENGTH_MEASURE(2.E-2),#1);
#69=PRESENTATION_STYLE_ASSIGNMENT((#68));
#70=STYLED_ITEM('',(#69),#67);
#71=DIRECTION('',(0.E0,1.E0,0.E0));
#72=VECTOR('',#71,1.8E0);
#73=CARTESIAN_POINT('',(-4.75E0,0.E0,0.E0));
#74=LINE('',#73,#72);
#75=CURVE_STYLE('',#20,POSITIVE_LENGTH_MEASURE(2.E-2),#1);
#76=PRESENTATION_STYLE_ASSIGNMENT((#75));
#77=STYLED_ITEM('',(#76),#74);
#78=CARTESIAN_POINT('',(0.E0,0.E0,0.E0));
#79=DIRECTION('',(0.E0,1.E0,0.E0));
#80=DIRECTION('',(1.E0,0.E0,0.E0));
#81=AXIS2_PLACEMENT_3D('',#78,#79,#80);
#83=CURVE_STYLE('',#20,POSITIVE_LENGTH_MEASURE(2.E-2),#1);
#84=PRESENTATION_STYLE_ASSIGNMENT((#83));
#85=STYLED_ITEM('',(#84),#82);
#86=CARTESIAN_POINT('',(0.E0,0.E0,0.E0));
#87=DIRECTION('',(0.E0,-1.E0,0.E0));
#88=DIRECTION('',(1.E0,0.E0,0.E0));
#89=AXIS2_PLACEMENT_3D('',#86,#87,#88);
#91=CURVE_STYLE('',#20,POSITIVE_LENGTH_MEASURE(2.E-2),#1);
#92=PRESENTATION_STYLE_ASSIGNMENT((#91));
#93=STYLED_ITEM('',(#92),#90);
#94=CARTESIAN_POINT('',(0.E0,1.8E0,0.E0));
#95=DIRECTION('',(0.E0,-1.E0,0.E0));
#96=DIRECTION('',(1.E0,0.E0,0.E0));
#97=AXIS2_PLACEMENT_3D('',#94,#95,#96);
#99=CURVE_STYLE('',#20,POSITIVE_LENGTH_MEASURE(2.E-2),#1);
#100=PRESENTATION_STYLE_ASSIGNMENT((#99));
#101=STYLED_ITEM('',(#100),#98);
#102=CARTESIAN_POINT('',(0.E0,1.8E0,0.E0));
#103=DIRECTION('',(0.E0,1.E0,0.E0));
#104=DIRECTION('',(1.E0,0.E0,0.E0));
#105=AXIS2_PLACEMENT_3D('',#102,#103,#104);
#107=CURVE_STYLE('',#20,POSITIVE_LENGTH_MEASURE(2.E-2),#1);
#108=PRESENTATION_STYLE_ASSIGNMENT((#107));
#109=STYLED_ITEM('',(#108),#106);
#110=DIRECTION('',(-1.077031686834E-1,9.941830955390E-1,0.E0));
#111=VECTOR('',#110,6.035105632878E0);
#112=CARTESIAN_POINT('',(5.4E0,1.8E0,0.E0));
#113=LINE('',#112,#111);
#114=CURVE_STYLE('',#20,POSITIVE_LENGTH_MEASURE(2.E-2),#1);
#115=PRESENTATION_STYLE_ASSIGNMENT((#114));
#116=STYLED_ITEM('',(#115),#113);
#117=DIRECTION('',(1.077031686834E-1,9.941830955390E-1,0.E0));
#118=VECTOR('',#117,6.035105632878E0);
#119=CARTESIAN_POINT('',(-5.4E0,1.8E0,0.E0));
#120=LINE('',#119,#118);
#121=CURVE_STYLE('',#20,POSITIVE_LENGTH_MEASURE(2.E-2),#1);
#122=PRESENTATION_STYLE_ASSIGNMENT((#121));
#123=STYLED_ITEM('',(#122),#120);
#124=CARTESIAN_POINT('',(0.E0,1.8E0,0.E0));
#125=DIRECTION('',(0.E0,1.E0,0.E0));
#126=DIRECTION('',(1.E0,0.E0,0.E0));
#127=AXIS2_PLACEMENT_3D('',#124,#125,#126);
#129=CURVE_STYLE('',#20,POSITIVE_LENGTH_MEASURE(2.E-2),#1);
#130=PRESENTATION_STYLE_ASSIGNMENT((#129));
#131=STYLED_ITEM('',(#130),#128);
#132=CARTESIAN_POINT('',(0.E0,1.8E0,0.E0));
#133=DIRECTION('',(0.E0,-1.E0,0.E0));
#134=DIRECTION('',(1.E0,0.E0,0.E0));
#135=AXIS2_PLACEMENT_3D('',#132,#133,#134);
#137=CURVE_STYLE('',#20,POSITIVE_LENGTH_MEASURE(2.E-2),#1);
#138=PRESENTATION_STYLE_ASSIGNMENT((#137));
#139=STYLED_ITEM('',(#138),#136);
#140=CARTESIAN_POINT('',(0.E0,7.8E0,0.E0));
#141=DIRECTION('',(0.E0,1.E0,0.E0));
#142=DIRECTION('',(1.E0,0.E0,0.E0));
#143=AXIS2_PLACEMENT_3D('',#140,#141,#142);
#145=CURVE_STYLE('',#20,POSITIVE_LENGTH_MEASURE(2.E-2),#1);
#146=PRESENTATION_STYLE_ASSIGNMENT((#145));
#147=STYLED_ITEM('',(#146),#144);
#148=CARTESIAN_POINT('',(0.E0,7.8E0,0.E0));
#149=DIRECTION('',(0.E0,-1.E0,0.E0));
#150=DIRECTION('',(1.E0,0.E0,0.E0));
#151=AXIS2_PLACEMENT_3D('',#148,#149,#150);
#153=CURVE_STYLE('',#20,POSITIVE_LENGTH_MEASURE(2.E-2),#1);
#154=PRESENTATION_STYLE_ASSIGNMENT((#153));
#155=STYLED_ITEM('',(#154),#152);
#156=DIRECTION('',(0.E0,-1.E0,0.E0));
#157=VECTOR('',#156,4.7E0);
#158=CARTESIAN_POINT('',(-5.66E-1,0.E0,2.55E0));
#159=LINE('',#158,#157);
#160=CURVE_STYLE('',#20,POSITIVE_LENGTH_MEASURE(2.E-2),#1);
#161=PRESENTATION_STYLE_ASSIGNMENT((#160));
#162=STYLED_ITEM('',(#161),#159);
#163=DIRECTION('',(0.E0,-1.E0,0.E0));
#164=VECTOR('',#163,4.7E0);
#165=CARTESIAN_POINT('',(-1.266E0,0.E0,2.55E0));
#166=LINE('',#165,#164);
#167=CURVE_STYLE('',#20,POSITIVE_LENGTH_MEASURE(2.E-2),#1);
#168=PRESENTATION_STYLE_ASSIGNMENT((#167));
#169=STYLED_ITEM('',(#168),#166);
#170=CARTESIAN_POINT('',(-9.16E-1,-4.7E0,2.55E0));
#171=DIRECTION('',(0.E0,-1.E0,0.E0));
#172=DIRECTION('',(1.E0,0.E0,0.E0));
#173=AXIS2_PLACEMENT_3D('',#170,#171,#172);
#175=CURVE_STYLE('',#20,POSITIVE_LENGTH_MEASURE(2.E-2),#1);
#176=PRESENTATION_STYLE_ASSIGNMENT((#175));
#177=STYLED_ITEM('',(#176),#174);
#178=CARTESIAN_POINT('',(-9.16E-1,-4.7E0,2.55E0));
#179=DIRECTION('',(0.E0,-1.E0,0.E0));
#180=DIRECTION('',(-1.E0,0.E0,0.E0));
#181=AXIS2_PLACEMENT_3D('',#178,#179,#180);
#183=CURVE_STYLE('',#20,POSITIVE_LENGTH_MEASURE(2.E-2),#1);
#184=PRESENTATION_STYLE_ASSIGNMENT((#183));
#185=STYLED_ITEM('',(#184),#182);
#186=CARTESIAN_POINT('',(-9.16E-1,-4.7E0,-2.55E0));
#187=DIRECTION('',(0.E0,-1.E0,0.E0));
#188=DIRECTION('',(1.E0,0.E0,0.E0));
#189=AXIS2_PLACEMENT_3D('',#186,#187,#188);
#191=CURVE_STYLE('',#20,POSITIVE_LENGTH_MEASURE(2.E-2),#1);
#192=PRESENTATION_STYLE_ASSIGNMENT((#191));
#193=STYLED_ITEM('',(#192),#190);
#194=CARTESIAN_POINT('',(-9.16E-1,-4.7E0,-2.55E0));
#195=DIRECTION('',(0.E0,-1.E0,0.E0));
#196=DIRECTION('',(-1.E0,0.E0,0.E0));
#197=AXIS2_PLACEMENT_3D('',#194,#195,#196);
#199=CURVE_STYLE('',#20,POSITIVE_LENGTH_MEASURE(2.E-2),#1);
#200=PRESENTATION_STYLE_ASSIGNMENT((#199));
#201=STYLED_ITEM('',(#200),#198);
#202=CARTESIAN_POINT('',(1.584E0,-4.7E0,0.E0));
#203=DIRECTION('',(0.E0,-1.E0,0.E0));
#204=DIRECTION('',(1.E0,0.E0,0.E0));
#205=AXIS2_PLACEMENT_3D('',#202,#203,#204);
#207=CURVE_STYLE('',#20,POSITIVE_LENGTH_MEASURE(2.E-2),#1);
#208=PRESENTATION_STYLE_ASSIGNMENT((#207));
#209=STYLED_ITEM('',(#208),#206);
#210=CARTESIAN_POINT('',(1.584E0,-4.7E0,0.E0));
#211=DIRECTION('',(0.E0,-1.E0,0.E0));
#212=DIRECTION('',(-1.E0,0.E0,0.E0));
#213=AXIS2_PLACEMENT_3D('',#210,#211,#212);
#215=CURVE_STYLE('',#20,POSITIVE_LENGTH_MEASURE(2.E-2),#1);
#216=PRESENTATION_STYLE_ASSIGNMENT((#215));
#217=STYLED_ITEM('',(#216),#214);
#218=DIRECTION('',(0.E0,-1.E0,0.E0));
#219=VECTOR('',#218,4.7E0);
#220=CARTESIAN_POINT('',(-5.66E-1,0.E0,-2.55E0));
#221=LINE('',#220,#219);
#222=CURVE_STYLE('',#20,POSITIVE_LENGTH_MEASURE(2.E-2),#1);
#223=PRESENTATION_STYLE_ASSIGNMENT((#222));
#224=STYLED_ITEM('',(#223),#221);
#225=DIRECTION('',(0.E0,-1.E0,0.E0));
#226=VECTOR('',#225,4.7E0);
#227=CARTESIAN_POINT('',(-1.266E0,0.E0,-2.55E0));
#228=LINE('',#227,#226);
#229=CURVE_STYLE('',#20,POSITIVE_LENGTH_MEASURE(2.E-2),#1);
#230=PRESENTATION_STYLE_ASSIGNMENT((#229));
#231=STYLED_ITEM('',(#230),#228);
#232=DIRECTION('',(0.E0,-1.E0,0.E0));
#233=VECTOR('',#232,4.7E0);
#234=CARTESIAN_POINT('',(1.934E0,0.E0,0.E0));
#235=LINE('',#234,#233);
#236=CURVE_STYLE('',#20,POSITIVE_LENGTH_MEASURE(2.E-2),#1);
#237=PRESENTATION_STYLE_ASSIGNMENT((#236));
#238=STYLED_ITEM('',(#237),#235);
#239=DIRECTION('',(0.E0,-1.E0,0.E0));
#240=VECTOR('',#239,4.7E0);
#241=CARTESIAN_POINT('',(1.234E0,0.E0,0.E0));
#242=LINE('',#241,#240);
#243=CURVE_STYLE('',#20,POSITIVE_LENGTH_MEASURE(2.E-2),#1);
#244=PRESENTATION_STYLE_ASSIGNMENT((#243));
#245=STYLED_ITEM('',(#244),#242);
#246=CARTESIAN_POINT('',(4.75E0,0.E0,0.E0));
#247=CARTESIAN_POINT('',(4.75E0,1.8E0,0.E0));
#248=VERTEX_POINT('',#246);
#249=VERTEX_POINT('',#247);
#250=CARTESIAN_POINT('',(5.4E0,1.8E0,0.E0));
#251=CARTESIAN_POINT('',(4.75E0,7.8E0,0.E0));
#252=VERTEX_POINT('',#250);
#253=VERTEX_POINT('',#251);
#254=CARTESIAN_POINT('',(-4.75E0,0.E0,0.E0));
#255=CARTESIAN_POINT('',(-4.75E0,1.8E0,0.E0));
#256=VERTEX_POINT('',#254);
#257=VERTEX_POINT('',#255);
#258=CARTESIAN_POINT('',(-5.4E0,1.8E0,0.E0));
#259=CARTESIAN_POINT('',(-4.75E0,7.8E0,0.E0));
#260=VERTEX_POINT('',#258);
#261=VERTEX_POINT('',#259);
#262=CARTESIAN_POINT('',(-5.66E-1,-4.7E0,2.55E0));
#263=CARTESIAN_POINT('',(-1.266E0,-4.7E0,2.55E0));
#264=VERTEX_POINT('',#262);
#265=VERTEX_POINT('',#263);
#266=CARTESIAN_POINT('',(-5.66E-1,-4.7E0,-2.55E0));
#267=CARTESIAN_POINT('',(-1.266E0,-4.7E0,-2.55E0));
#268=VERTEX_POINT('',#266);
#269=VERTEX_POINT('',#267);
#270=CARTESIAN_POINT('',(1.934E0,-4.7E0,0.E0));
#271=CARTESIAN_POINT('',(1.234E0,-4.7E0,0.E0));
#272=VERTEX_POINT('',#270);
#273=VERTEX_POINT('',#271);
#274=CARTESIAN_POINT('',(-5.66E-1,0.E0,2.55E0));
#275=CARTESIAN_POINT('',(-1.266E0,0.E0,2.55E0));
#276=VERTEX_POINT('',#274);
#277=VERTEX_POINT('',#275);
#278=CARTESIAN_POINT('',(-5.66E-1,0.E0,-2.55E0));
#279=CARTESIAN_POINT('',(-1.266E0,0.E0,-2.55E0));
#280=VERTEX_POINT('',#278);
#281=VERTEX_POINT('',#279);
#282=CARTESIAN_POINT('',(1.934E0,0.E0,0.E0));
#283=CARTESIAN_POINT('',(1.234E0,0.E0,0.E0));
#284=VERTEX_POINT('',#282);
#285=VERTEX_POINT('',#283);
#286=CARTESIAN_POINT('',(0.E0,0.E0,0.E0));
#287=DIRECTION('',(0.E0,-1.E0,0.E0));
#288=DIRECTION('',(-1.E0,0.E0,0.E0));
#289=AXIS2_PLACEMENT_3D('',#286,#287,#288);
#290=PLANE('',#289);
#292=ORIENTED_EDGE('',*,*,#291,.T.);
#294=ORIENTED_EDGE('',*,*,#293,.F.);
#295=EDGE_LOOP('',(#292,#294));
#296=FACE_OUTER_BOUND('',#295,.F.);
#298=ORIENTED_EDGE('',*,*,#297,.T.);
#300=ORIENTED_EDGE('',*,*,#299,.T.);
#301=EDGE_LOOP('',(#298,#300));
#302=FACE_BOUND('',#301,.F.);
#304=ORIENTED_EDGE('',*,*,#303,.T.);
#306=ORIENTED_EDGE('',*,*,#305,.T.);
#307=EDGE_LOOP('',(#304,#306));
#308=FACE_BOUND('',#307,.F.);
#310=ORIENTED_EDGE('',*,*,#309,.T.);
#312=ORIENTED_EDGE('',*,*,#311,.T.);
#313=EDGE_LOOP('',(#310,#312));
#314=FACE_BOUND('',#313,.F.);
#315=ADVANCED_FACE('',(#296,#302,#308,#314),#290,.T.);
#316=CARTESIAN_POINT('',(0.E0,8.19E0,0.E0));
#317=DIRECTION('',(0.E0,-1.E0,0.E0));
#318=DIRECTION('',(-1.E0,0.E0,0.E0));
#319=AXIS2_PLACEMENT_3D('',#316,#317,#318);
#320=CYLINDRICAL_SURFACE('',#319,4.75E0);
#322=ORIENTED_EDGE('',*,*,#321,.T.);
#324=ORIENTED_EDGE('',*,*,#323,.T.);
#326=ORIENTED_EDGE('',*,*,#325,.F.);
#327=ORIENTED_EDGE('',*,*,#291,.F.);
#328=EDGE_LOOP('',(#322,#324,#326,#327));
#329=FACE_OUTER_BOUND('',#328,.F.);
#330=ADVANCED_FACE('',(#329),#320,.T.);
#331=CARTESIAN_POINT('',(0.E0,8.19E0,0.E0));
#332=DIRECTION('',(0.E0,-1.E0,0.E0));
#333=DIRECTION('',(-1.E0,0.E0,0.E0));
#334=AXIS2_PLACEMENT_3D('',#331,#332,#333);
#335=CYLINDRICAL_SURFACE('',#334,4.75E0);
#336=ORIENTED_EDGE('',*,*,#321,.F.);
#337=ORIENTED_EDGE('',*,*,#293,.T.);
#338=ORIENTED_EDGE('',*,*,#325,.T.);
#340=ORIENTED_EDGE('',*,*,#339,.F.);
#341=EDGE_LOOP('',(#336,#337,#338,#340));
#342=FACE_OUTER_BOUND('',#341,.F.);
#343=ADVANCED_FACE('',(#342),#335,.T.);
#344=CARTESIAN_POINT('',(0.E0,1.8E0,0.E0));
#345=DIRECTION('',(0.E0,-1.E0,0.E0));
#346=DIRECTION('',(-1.E0,0.E0,0.E0));
#347=AXIS2_PLACEMENT_3D('',#344,#345,#346);
#348=PLANE('',#347);
#350=ORIENTED_EDGE('',*,*,#349,.T.);
#352=ORIENTED_EDGE('',*,*,#351,.F.);
#353=EDGE_LOOP('',(#350,#352));
#354=FACE_OUTER_BOUND('',#353,.F.);
#355=ORIENTED_EDGE('',*,*,#339,.T.);
#356=ORIENTED_EDGE('',*,*,#323,.F.);
#357=EDGE_LOOP('',(#355,#356));
#358=FACE_BOUND('',#357,.F.);
#359=ADVANCED_FACE('',(#354,#358),#348,.T.);
#360=CARTESIAN_POINT('',(0.E0,4.8E0,0.E0));
#361=DIRECTION('',(0.E0,-1.E0,0.E0));
#362=DIRECTION('',(-1.E0,0.E0,0.E0));
#363=AXIS2_PLACEMENT_3D('',#360,#361,#362);
#364=CONICAL_SURFACE('',#363,5.075E0,6.182930165948E0);
#366=ORIENTED_EDGE('',*,*,#365,.T.);
#368=ORIENTED_EDGE('',*,*,#367,.T.);
#370=ORIENTED_EDGE('',*,*,#369,.F.);
#371=ORIENTED_EDGE('',*,*,#349,.F.);
#372=EDGE_LOOP('',(#366,#368,#370,#371));
#373=FACE_OUTER_BOUND('',#372,.F.);
#374=ADVANCED_FACE('',(#373),#364,.T.);
#375=CARTESIAN_POINT('',(0.E0,4.8E0,0.E0));
#376=DIRECTION('',(0.E0,-1.E0,0.E0));
#377=DIRECTION('',(-1.E0,0.E0,0.E0));
#378=AXIS2_PLACEMENT_3D('',#375,#376,#377);
#379=CONICAL_SURFACE('',#378,5.075E0,6.182930165948E0);
#380=ORIENTED_EDGE('',*,*,#365,.F.);
#381=ORIENTED_EDGE('',*,*,#351,.T.);
#382=ORIENTED_EDGE('',*,*,#369,.T.);
#384=ORIENTED_EDGE('',*,*,#383,.F.);
#385=EDGE_LOOP('',(#380,#381,#382,#384));
#386=FACE_OUTER_BOUND('',#385,.F.);
#387=ADVANCED_FACE('',(#386),#379,.T.);
#388=CARTESIAN_POINT('',(0.E0,7.8E0,0.E0));
#389=DIRECTION('',(0.E0,-1.E0,0.E0));
#390=DIRECTION('',(-1.E0,0.E0,0.E0));
#391=AXIS2_PLACEMENT_3D('',#388,#389,#390);
#392=PLANE('',#391);
#393=ORIENTED_EDGE('',*,*,#367,.F.);
#394=ORIENTED_EDGE('',*,*,#383,.T.);
#395=EDGE_LOOP('',(#393,#394));
#396=FACE_OUTER_BOUND('',#395,.F.);
#397=ADVANCED_FACE('',(#396),#392,.F.);
#398=CARTESIAN_POINT('',(-9.16E-1,0.E0,2.55E0));
#399=DIRECTION('',(0.E0,-1.E0,0.E0));
#400=DIRECTION('',(1.E0,0.E0,0.E0));
#401=AXIS2_PLACEMENT_3D('',#398,#399,#400);
#402=CYLINDRICAL_SURFACE('',#401,3.5E-1);
#403=ORIENTED_EDGE('',*,*,#297,.F.);
#405=ORIENTED_EDGE('',*,*,#404,.T.);
#407=ORIENTED_EDGE('',*,*,#406,.T.);
#409=ORIENTED_EDGE('',*,*,#408,.F.);
#410=EDGE_LOOP('',(#403,#405,#407,#409));
#411=FACE_OUTER_BOUND('',#410,.F.);
#412=ADVANCED_FACE('',(#411),#402,.T.);
#413=CARTESIAN_POINT('',(-9.16E-1,0.E0,2.55E0));
#414=DIRECTION('',(0.E0,-1.E0,0.E0));
#415=DIRECTION('',(1.E0,0.E0,0.E0));
#416=AXIS2_PLACEMENT_3D('',#413,#414,#415);
#417=CYLINDRICAL_SURFACE('',#416,3.5E-1);
#418=ORIENTED_EDGE('',*,*,#299,.F.);
#419=ORIENTED_EDGE('',*,*,#408,.T.);
#421=ORIENTED_EDGE('',*,*,#420,.T.);
#422=ORIENTED_EDGE('',*,*,#404,.F.);
#423=EDGE_LOOP('',(#418,#419,#421,#422));
#424=FACE_OUTER_BOUND('',#423,.F.);
#425=ADVANCED_FACE('',(#424),#417,.T.);
#426=CARTESIAN_POINT('',(0.E0,-4.7E0,0.E0));
#427=DIRECTION('',(0.E0,-1.E0,0.E0));
#428=DIRECTION('',(1.E0,0.E0,0.E0));
#429=AXIS2_PLACEMENT_3D('',#426,#427,#428);
#430=PLANE('',#429);
#431=ORIENTED_EDGE('',*,*,#406,.F.);
#432=ORIENTED_EDGE('',*,*,#420,.F.);
#433=EDGE_LOOP('',(#431,#432));
#434=FACE_OUTER_BOUND('',#433,.F.);
#435=ADVANCED_FACE('',(#434),#430,.T.);
#436=CARTESIAN_POINT('',(0.E0,-4.7E0,0.E0));
#437=DIRECTION('',(0.E0,-1.E0,0.E0));
#438=DIRECTION('',(1.E0,0.E0,0.E0));
#439=AXIS2_PLACEMENT_3D('',#436,#437,#438);
#440=PLANE('',#439);
#442=ORIENTED_EDGE('',*,*,#441,.F.);
#444=ORIENTED_EDGE('',*,*,#443,.F.);
#445=EDGE_LOOP('',(#442,#444));
#446=FACE_OUTER_BOUND('',#445,.F.);
#447=ADVANCED_FACE('',(#446),#440,.T.);
#448=CARTESIAN_POINT('',(0.E0,-4.7E0,0.E0));
#449=DIRECTION('',(0.E0,-1.E0,0.E0));
#450=DIRECTION('',(1.E0,0.E0,0.E0));
#451=AXIS2_PLACEMENT_3D('',#448,#449,#450);
#452=PLANE('',#451);
#454=ORIENTED_EDGE('',*,*,#453,.F.);
#456=ORIENTED_EDGE('',*,*,#455,.F.);
#457=EDGE_LOOP('',(#454,#456));
#458=FACE_OUTER_BOUND('',#457,.F.);
#459=ADVANCED_FACE('',(#458),#452,.T.);
#460=CARTESIAN_POINT('',(-9.16E-1,0.E0,-2.55E0));
#461=DIRECTION('',(0.E0,-1.E0,0.E0));
#462=DIRECTION('',(1.E0,0.E0,0.E0));
#463=AXIS2_PLACEMENT_3D('',#460,#461,#462);
#464=CYLINDRICAL_SURFACE('',#463,3.5E-1);
#465=ORIENTED_EDGE('',*,*,#303,.F.);
#467=ORIENTED_EDGE('',*,*,#466,.T.);
#468=ORIENTED_EDGE('',*,*,#441,.T.);
#470=ORIENTED_EDGE('',*,*,#469,.F.);
#471=EDGE_LOOP('',(#465,#467,#468,#470));
#472=FACE_OUTER_BOUND('',#471,.F.);
#473=ADVANCED_FACE('',(#472),#464,.T.);
#474=CARTESIAN_POINT('',(-9.16E-1,0.E0,-2.55E0));
#475=DIRECTION('',(0.E0,-1.E0,0.E0));
#476=DIRECTION('',(1.E0,0.E0,0.E0));
#477=AXIS2_PLACEMENT_3D('',#474,#475,#476);
#478=CYLINDRICAL_SURFACE('',#477,3.5E-1);
#479=ORIENTED_EDGE('',*,*,#305,.F.);
#480=ORIENTED_EDGE('',*,*,#469,.T.);
#481=ORIENTED_EDGE('',*,*,#443,.T.);
#482=ORIENTED_EDGE('',*,*,#466,.F.);
#483=EDGE_LOOP('',(#479,#480,#481,#482));
#484=FACE_OUTER_BOUND('',#483,.F.);
#485=ADVANCED_FACE('',(#484),#478,.T.);
#486=CARTESIAN_POINT('',(1.584E0,0.E0,0.E0));
#487=DIRECTION('',(0.E0,-1.E0,0.E0));
#488=DIRECTION('',(1.E0,0.E0,0.E0));
#489=AXIS2_PLACEMENT_3D('',#486,#487,#488);
#490=CYLINDRICAL_SURFACE('',#489,3.5E-1);
#491=ORIENTED_EDGE('',*,*,#309,.F.);
#493=ORIENTED_EDGE('',*,*,#492,.T.);
#494=ORIENTED_EDGE('',*,*,#453,.T.);
#496=ORIENTED_EDGE('',*,*,#495,.F.);
#497=EDGE_LOOP('',(#491,#493,#494,#496));
#498=FACE_OUTER_BOUND('',#497,.F.);
#499=ADVANCED_FACE('',(#498),#490,.T.);
#500=CARTESIAN_POINT('',(1.584E0,0.E0,0.E0));
#501=DIRECTION('',(0.E0,-1.E0,0.E0));
#502=DIRECTION('',(1.E0,0.E0,0.E0));
#503=AXIS2_PLACEMENT_3D('',#500,#501,#502);
#504=CYLINDRICAL_SURFACE('',#503,3.5E-1);
#505=ORIENTED_EDGE('',*,*,#311,.F.);
#506=ORIENTED_EDGE('',*,*,#495,.T.);
#507=ORIENTED_EDGE('',*,*,#455,.T.);
#508=ORIENTED_EDGE('',*,*,#492,.F.);
#509=EDGE_LOOP('',(#505,#506,#507,#508));
#510=FACE_OUTER_BOUND('',#509,.F.);
#511=ADVANCED_FACE('',(#510),#504,.T.);
#512=CLOSED_SHELL('',(#315,#330,#343,#359,#374,#387,#397,#412,#425,#435,#447,
#459,#473,#485,#499,#511));
#513=MANIFOLD_SOLID_BREP('',#512);
#514=FILL_AREA_STYLE_COLOUR('',#1);
#515=FILL_AREA_STYLE('',(#514));
#516=SURFACE_STYLE_FILL_AREA(#515);
#517=SURFACE_SIDE_STYLE('',(#516));
#518=SURFACE_STYLE_USAGE(.BOTH.,#517);
#519=PRESENTATION_STYLE_ASSIGNMENT((#518));
#14=STYLED_ITEM('',(#519),#513);
#520=(LENGTH_UNIT()NAMED_UNIT(*)SI_UNIT(.MILLI.,.METRE.));
#521=DIMENSIONAL_EXPONENTS(0.E0,0.E0,0.E0,0.E0,0.E0,0.E0,0.E0);
#522=(NAMED_UNIT(*)PLANE_ANGLE_UNIT()SI_UNIT($,.RADIAN.));
#523=PLANE_ANGLE_MEASURE_WITH_UNIT(PLANE_ANGLE_MEASURE(1.745329251994E-2),#522);
#524=(CONVERSION_BASED_UNIT('DEGREE',#523)NAMED_UNIT(#521)PLANE_ANGLE_UNIT());
#525=(NAMED_UNIT(*)SI_UNIT($,.STERADIAN.)SOLID_ANGLE_UNIT());
#526=UNCERTAINTY_MEASURE_WITH_UNIT(LENGTH_MEASURE(1.973572492267E-3),#520,
'distance_accuracy_value',
'Maximum model space distance between geometric entities at asserted connectivities');
#527=(GEOMETRIC_REPRESENTATION_CONTEXT(3)GLOBAL_UNCERTAINTY_ASSIGNED_CONTEXT((
#526))GLOBAL_UNIT_ASSIGNED_CONTEXT((#520,#524,#525))REPRESENTATION_CONTEXT
('ID1','3'));
#529=MECHANICAL_DESIGN_GEOMETRIC_PRESENTATION_REPRESENTATION('',(#23,#31,#39,
#47,#55,#63,#70,#77,#85,#93,#101,#109,#116,#123,#131,#139,#147,#155,#162,#169,
#177,#185,#193,#201,#209,#217,#224,#231,#238,#245,#14),#527);
#530=APPLICATION_CONTEXT('automotive_design');
#531=APPLICATION_PROTOCOL_DEFINITION('draft international standard',
'automotive_design',1998,#530);
#532=PRODUCT_DEFINITION_CONTEXT('part definition',#530,'design');
#533=PRODUCT_CONTEXT('',#530,'mechanical');
#534=PRODUCT('922LC5','922LC5','NOT SPECIFIED',(#533));
#535=PRODUCT_DEFINITION_FORMATION_WITH_SPECIFIED_SOURCE('1','LAST_VERSION',#534,
.MADE.);
#539=PRODUCT_TYPE('part','',(#534));
#19=CIRCLE('',#18,3.5E-1);
#28=CIRCLE('',#27,3.5E-1);
#36=CIRCLE('',#35,3.5E-1);
#44=CIRCLE('',#43,3.5E-1);
#52=CIRCLE('',#51,3.5E-1);
#60=CIRCLE('',#59,3.5E-1);
#82=CIRCLE('',#81,4.75E0);
#90=CIRCLE('',#89,4.75E0);
#98=CIRCLE('',#97,4.75E0);
#106=CIRCLE('',#105,4.75E0);
#128=CIRCLE('',#127,5.4E0);
#136=CIRCLE('',#135,5.4E0);
#144=CIRCLE('',#143,4.75E0);
#152=CIRCLE('',#151,4.75E0);
#174=CIRCLE('',#173,3.5E-1);
#182=CIRCLE('',#181,3.5E-1);
#190=CIRCLE('',#189,3.5E-1);
#198=CIRCLE('',#197,3.5E-1);
#206=CIRCLE('',#205,3.5E-1);
#214=CIRCLE('',#213,3.5E-1);
#291=EDGE_CURVE('',#248,#256,#82,.T.);
#293=EDGE_CURVE('',#248,#256,#90,.T.);
#297=EDGE_CURVE('',#276,#277,#19,.T.);
#299=EDGE_CURVE('',#277,#276,#28,.T.);
#303=EDGE_CURVE('',#280,#281,#36,.T.);
#305=EDGE_CURVE('',#281,#280,#44,.T.);
#309=EDGE_CURVE('',#284,#285,#52,.T.);
#311=EDGE_CURVE('',#285,#284,#60,.T.);
#321=EDGE_CURVE('',#248,#249,#67,.T.);
#323=EDGE_CURVE('',#249,#257,#106,.T.);
#325=EDGE_CURVE('',#256,#257,#74,.T.);
#339=EDGE_CURVE('',#249,#257,#98,.T.);
#349=EDGE_CURVE('',#252,#260,#128,.T.);
#351=EDGE_CURVE('',#252,#260,#136,.T.);
#365=EDGE_CURVE('',#252,#253,#113,.T.);
#367=EDGE_CURVE('',#253,#261,#144,.T.);
#369=EDGE_CURVE('',#260,#261,#120,.T.);
#383=EDGE_CURVE('',#253,#261,#152,.T.);
#404=EDGE_CURVE('',#276,#264,#159,.T.);
#406=EDGE_CURVE('',#264,#265,#174,.T.);
#408=EDGE_CURVE('',#277,#265,#166,.T.);
#420=EDGE_CURVE('',#265,#264,#182,.T.);
#441=EDGE_CURVE('',#268,#269,#190,.T.);
#443=EDGE_CURVE('',#269,#268,#198,.T.);
#453=EDGE_CURVE('',#272,#273,#206,.T.);
#455=EDGE_CURVE('',#273,#272,#214,.T.);
#466=EDGE_CURVE('',#280,#268,#221,.T.);
#469=EDGE_CURVE('',#281,#269,#228,.T.);
#492=EDGE_CURVE('',#284,#272,#235,.T.);
#495=EDGE_CURVE('',#285,#273,#242,.T.);
#528=ADVANCED_BREP_SHAPE_REPRESENTATION('',(#513),#527);
#536=PRODUCT_DEFINITION('part definition','',#535,#532);
#537=PRODUCT_DEFINITION_SHAPE('','SHAPE FOR 922LC5.',#536);
#538=SHAPE_DEFINITION_REPRESENTATION(#537,#528);
ENDSEC;
END-ISO-10303-21;
