ISO-10303-21;
HEADER;
FILE_DESCRIPTION((''),'2;1');
FILE_NAME('97584040B','2011-11-11T',('dhelisch'),(''),
'PRO/ENGINEER BY PARAMETRIC TECHNOLOGY CORPORATION, 2007250',
'PRO/ENGINEER BY PARAMETRIC TECHNOLOGY CORPORATION, 2007250','');
FILE_SCHEMA(('CONFIG_CONTROL_DESIGN'));
ENDSEC;
DATA;
#1=DRAUGHTING_PRE_DEFINED_COLOUR('black');
#2=COLOUR_RGB('',0.E0,0.E0,1.96E-1);
#3=COLOUR_RGB('',0.E0,0.E0,3.14E-1);
#4=COLOUR_RGB('',0.E0,1.96E-1,0.E0);
#5=COLOUR_RGB('',0.E0,3.14E-1,0.E0);
#6=COLOUR_RGB('',0.E0,6.E-1,4.E-1);
#7=COLOUR_RGB('',7.8E-2,7.8E-2,7.8E-2);
#8=COLOUR_RGB('',1.18E-1,1.18E-1,4.71E-1);
#9=COLOUR_RGB('',1.57E-1,1.57E-1,1.57E-1);
#10=COLOUR_RGB('',1.96E-1,0.E0,0.E0);
#11=COLOUR_RGB('',1.96E-1,0.E0,1.96E-1);
#12=COLOUR_RGB('',1.96E-1,5.88E-1,1.96E-1);
#13=COLOUR_RGB('',2.039215686275E-1,6.274509803922E-1,9.372549019608E-1);
#14=COLOUR_RGB('',2.352941176471E-1,2.196078431373E-1,1.E0);
#15=COLOUR_RGB('',2.35E-1,2.35E-1,2.35E-1);
#16=COLOUR_RGB('',2.35E-1,2.35E-1,5.88E-1);
#17=COLOUR_RGB('',2.509803921569E-1,3.215686274510E-1,3.921568627451E-1);
#18=COLOUR_RGB('',3.14E-1,3.14E-1,3.14E-1);
#19=COLOUR_RGB('',3.27543E-1,1.E0,6.33116E-1);
#20=COLOUR_RGB('',3.92E-1,0.E0,0.E0);
#21=COLOUR_RGB('',3.92E-1,0.E0,3.92E-1);
#22=COLOUR_RGB('',3.92E-1,3.92E-1,3.92E-1);
#23=COLOUR_RGB('',3.92E-1,3.92E-1,8.63E-1);
#24=COLOUR_RGB('',3.92E-1,5.88E-1,3.92E-1);
#25=COLOUR_RGB('',3.92E-1,5.88E-1,8.63E-1);
#26=COLOUR_RGB('',5.01961E-1,1.E0,5.01961E-1);
#27=COLOUR_RGB('',5.098039215686E-1,5.098039215686E-1,5.882352941176E-1);
#28=COLOUR_RGB('',5.137254901961E-1,0.E0,0.E0);
#29=COLOUR_RGB('',5.5E-1,5.6E-1,7.E-1);
#30=COLOUR_RGB('',5.803921568627E-1,0.E0,1.607843137255E-1);
#31=COLOUR_RGB('',5.88E-1,5.88E-1,5.88E-1);
#32=COLOUR_RGB('',5.88E-1,7.84E-1,5.88E-1);
#33=COLOUR_RGB('',6.2E-1,3.1E-1,6.5E-1);
#34=COLOUR_RGB('',6.392156862745E-1,6.392156862745E-1,6.862745098039E-1);
#35=COLOUR_RGB('',6.666666666667E-1,4.627450980392E-1,2.196078431373E-1);
#36=COLOUR_RGB('',6.784313725490E-1,7.686274509804E-1,8.117647058824E-1);
#37=COLOUR_RGB('',6.8E-1,8.5E-1,1.E0);
#38=COLOUR_RGB('',8.470588235294E-1,8.392156862745E-1,8.392156862745E-1);
#39=COLOUR_RGB('',8.784E-1,9.49E-1,1.E0);
#40=COLOUR_RGB('',9.8E-1,3.92E-1,0.E0);
#41=COLOUR_RGB('',9.8E-1,5.88E-1,0.E0);
#42=COLOUR_RGB('',9.8E-1,7.84E-1,0.E0);
#43=COLOUR_RGB('',1.E0,3.7E-1,3.8E-1);
#44=COLOUR_RGB('',1.E0,5.019607843137E-1,2.509803921569E-1);
#45=DRAUGHTING_PRE_DEFINED_COLOUR('yellow');
#46=COLOUR_RGB('',1.E0,1.E0,5.019607843137E-1);
#47=DRAUGHTING_PRE_DEFINED_COLOUR('white');
#49=CARTESIAN_POINT('',(0.E0,0.E0,-2.E2));
#50=DIRECTION('',(0.E0,0.E0,-1.E0));
#51=DIRECTION('',(1.E0,0.E0,0.E0));
#52=AXIS2_PLACEMENT_3D('',#49,#50,#51);
#54=DRAUGHTING_PRE_DEFINED_CURVE_FONT('continuous');
#55=CURVE_STYLE('',#54,POSITIVE_LENGTH_MEASURE(2.E-2),#19);
#56=PRESENTATION_STYLE_ASSIGNMENT((#55));
#57=STYLED_ITEM('',(#56),#53);
#58=CARTESIAN_POINT('',(0.E0,0.E0,-2.E2));
#59=DIRECTION('',(0.E0,0.E0,-1.E0));
#60=DIRECTION('',(-1.E0,0.E0,0.E0));
#61=AXIS2_PLACEMENT_3D('',#58,#59,#60);
#63=CURVE_STYLE('',#54,POSITIVE_LENGTH_MEASURE(2.E-2),#19);
#64=PRESENTATION_STYLE_ASSIGNMENT((#63));
#65=STYLED_ITEM('',(#64),#62);
#66=CARTESIAN_POINT('',(0.E0,0.E0,-2.E2));
#67=DIRECTION('',(0.E0,0.E0,1.E0));
#68=DIRECTION('',(1.E0,0.E0,0.E0));
#69=AXIS2_PLACEMENT_3D('',#66,#67,#68);
#71=CURVE_STYLE('',#54,POSITIVE_LENGTH_MEASURE(2.E-2),#19);
#72=PRESENTATION_STYLE_ASSIGNMENT((#71));
#73=STYLED_ITEM('',(#72),#70);
#74=CARTESIAN_POINT('',(0.E0,0.E0,-2.E2));
#75=DIRECTION('',(0.E0,0.E0,1.E0));
#76=DIRECTION('',(-1.E0,0.E0,0.E0));
#77=AXIS2_PLACEMENT_3D('',#74,#75,#76);
#79=CURVE_STYLE('',#54,POSITIVE_LENGTH_MEASURE(2.E-2),#19);
#80=PRESENTATION_STYLE_ASSIGNMENT((#79));
#81=STYLED_ITEM('',(#80),#78);
#82=DIRECTION('',(0.E0,0.E0,1.E0));
#83=VECTOR('',#82,4.E2);
#84=CARTESIAN_POINT('',(1.25E1,0.E0,-2.E2));
#85=LINE('',#84,#83);
#86=CURVE_STYLE('',#54,POSITIVE_LENGTH_MEASURE(2.E-2),#19);
#87=PRESENTATION_STYLE_ASSIGNMENT((#86));
#88=STYLED_ITEM('',(#87),#85);
#89=DIRECTION('',(0.E0,0.E0,1.E0));
#90=VECTOR('',#89,4.E2);
#91=CARTESIAN_POINT('',(-1.25E1,0.E0,-2.E2));
#92=LINE('',#91,#90);
#93=CURVE_STYLE('',#54,POSITIVE_LENGTH_MEASURE(2.E-2),#19);
#94=PRESENTATION_STYLE_ASSIGNMENT((#93));
#95=STYLED_ITEM('',(#94),#92);
#96=CARTESIAN_POINT('',(0.E0,0.E0,2.E2));
#97=DIRECTION('',(0.E0,0.E0,1.E0));
#98=DIRECTION('',(1.E0,0.E0,0.E0));
#99=AXIS2_PLACEMENT_3D('',#96,#97,#98);
#101=CURVE_STYLE('',#54,POSITIVE_LENGTH_MEASURE(2.E-2),#19);
#102=PRESENTATION_STYLE_ASSIGNMENT((#101));
#103=STYLED_ITEM('',(#102),#100);
#104=CARTESIAN_POINT('',(0.E0,0.E0,2.E2));
#105=DIRECTION('',(0.E0,0.E0,1.E0));
#106=DIRECTION('',(-1.E0,0.E0,0.E0));
#107=AXIS2_PLACEMENT_3D('',#104,#105,#106);
#109=CURVE_STYLE('',#54,POSITIVE_LENGTH_MEASURE(2.E-2),#19);
#110=PRESENTATION_STYLE_ASSIGNMENT((#109));
#111=STYLED_ITEM('',(#110),#108);
#112=CARTESIAN_POINT('',(0.E0,0.E0,2.E2));
#113=DIRECTION('',(0.E0,0.E0,-1.E0));
#114=DIRECTION('',(1.E0,0.E0,0.E0));
#115=AXIS2_PLACEMENT_3D('',#112,#113,#114);
#117=CURVE_STYLE('',#54,POSITIVE_LENGTH_MEASURE(2.E-2),#19);
#118=PRESENTATION_STYLE_ASSIGNMENT((#117));
#119=STYLED_ITEM('',(#118),#116);
#120=CARTESIAN_POINT('',(0.E0,0.E0,2.E2));
#121=DIRECTION('',(0.E0,0.E0,-1.E0));
#122=DIRECTION('',(-1.E0,0.E0,0.E0));
#123=AXIS2_PLACEMENT_3D('',#120,#121,#122);
#125=CURVE_STYLE('',#54,POSITIVE_LENGTH_MEASURE(2.E-2),#19);
#126=PRESENTATION_STYLE_ASSIGNMENT((#125));
#127=STYLED_ITEM('',(#126),#124);
#128=DIRECTION('',(0.E0,0.E0,1.E0));
#129=VECTOR('',#128,4.E2);
#130=CARTESIAN_POINT('',(-1.1E1,0.E0,-2.E2));
#131=LINE('',#130,#129);
#132=CURVE_STYLE('',#54,POSITIVE_LENGTH_MEASURE(2.E-2),#19);
#133=PRESENTATION_STYLE_ASSIGNMENT((#132));
#134=STYLED_ITEM('',(#133),#131);
#135=DIRECTION('',(0.E0,0.E0,1.E0));
#136=VECTOR('',#135,4.E2);
#137=CARTESIAN_POINT('',(1.1E1,0.E0,-2.E2));
#138=LINE('',#137,#136);
#139=CURVE_STYLE('',#54,POSITIVE_LENGTH_MEASURE(2.E-2),#19);
#140=PRESENTATION_STYLE_ASSIGNMENT((#139));
#141=STYLED_ITEM('',(#140),#138);
#142=CARTESIAN_POINT('',(1.1E1,0.E0,-2.E2));
#143=CARTESIAN_POINT('',(1.1E1,0.E0,2.E2));
#144=VERTEX_POINT('',#142);
#145=VERTEX_POINT('',#143);
#146=CARTESIAN_POINT('',(-1.1E1,0.E0,-2.E2));
#147=CARTESIAN_POINT('',(-1.1E1,0.E0,2.E2));
#148=VERTEX_POINT('',#146);
#149=VERTEX_POINT('',#147);
#150=CARTESIAN_POINT('',(-1.25E1,0.E0,-2.E2));
#151=CARTESIAN_POINT('',(-1.25E1,0.E0,2.E2));
#152=VERTEX_POINT('',#150);
#153=VERTEX_POINT('',#151);
#154=CARTESIAN_POINT('',(1.25E1,0.E0,-2.E2));
#155=CARTESIAN_POINT('',(1.25E1,0.E0,2.E2));
#156=VERTEX_POINT('',#154);
#157=VERTEX_POINT('',#155);
#158=CARTESIAN_POINT('',(0.E0,0.E0,0.E0));
#159=DIRECTION('',(0.E0,0.E0,1.E0));
#160=DIRECTION('',(-1.E0,0.E0,0.E0));
#161=AXIS2_PLACEMENT_3D('',#158,#159,#160);
#162=CYLINDRICAL_SURFACE('',#161,1.1E1);
#164=ORIENTED_EDGE('',*,*,#163,.T.);
#166=ORIENTED_EDGE('',*,*,#165,.T.);
#168=ORIENTED_EDGE('',*,*,#167,.T.);
#170=ORIENTED_EDGE('',*,*,#169,.F.);
#171=EDGE_LOOP('',(#164,#166,#168,#170));
#172=FACE_OUTER_BOUND('',#171,.F.);
#173=ADVANCED_FACE('',(#172),#162,.F.);
#174=CARTESIAN_POINT('',(0.E0,0.E0,-2.E2));
#175=DIRECTION('',(0.E0,0.E0,-1.E0));
#176=DIRECTION('',(-1.E0,0.E0,0.E0));
#177=AXIS2_PLACEMENT_3D('',#174,#175,#176);
#178=PLANE('',#177);
#180=ORIENTED_EDGE('',*,*,#179,.F.);
#182=ORIENTED_EDGE('',*,*,#181,.F.);
#183=EDGE_LOOP('',(#180,#182));
#184=FACE_OUTER_BOUND('',#183,.F.);
#186=ORIENTED_EDGE('',*,*,#185,.F.);
#187=ORIENTED_EDGE('',*,*,#163,.F.);
#188=EDGE_LOOP('',(#186,#187));
#189=FACE_BOUND('',#188,.F.);
#190=ADVANCED_FACE('',(#184,#189),#178,.T.);
#191=CARTESIAN_POINT('',(0.E0,0.E0,0.E0));
#192=DIRECTION('',(0.E0,0.E0,1.E0));
#193=DIRECTION('',(-1.E0,0.E0,0.E0));
#194=AXIS2_PLACEMENT_3D('',#191,#192,#193);
#195=CYLINDRICAL_SURFACE('',#194,1.25E1);
#196=ORIENTED_EDGE('',*,*,#179,.T.);
#198=ORIENTED_EDGE('',*,*,#197,.T.);
#200=ORIENTED_EDGE('',*,*,#199,.T.);
#202=ORIENTED_EDGE('',*,*,#201,.F.);
#203=EDGE_LOOP('',(#196,#198,#200,#202));
#204=FACE_OUTER_BOUND('',#203,.F.);
#205=ADVANCED_FACE('',(#204),#195,.T.);
#206=CARTESIAN_POINT('',(0.E0,0.E0,0.E0));
#207=DIRECTION('',(0.E0,0.E0,1.E0));
#208=DIRECTION('',(-1.E0,0.E0,0.E0));
#209=AXIS2_PLACEMENT_3D('',#206,#207,#208);
#210=CYLINDRICAL_SURFACE('',#209,1.25E1);
#211=ORIENTED_EDGE('',*,*,#181,.T.);
#212=ORIENTED_EDGE('',*,*,#201,.T.);
#214=ORIENTED_EDGE('',*,*,#213,.T.);
#215=ORIENTED_EDGE('',*,*,#197,.F.);
#216=EDGE_LOOP('',(#211,#212,#214,#215));
#217=FACE_OUTER_BOUND('',#216,.F.);
#218=ADVANCED_FACE('',(#217),#210,.T.);
#219=CARTESIAN_POINT('',(0.E0,0.E0,2.E2));
#220=DIRECTION('',(0.E0,0.E0,-1.E0));
#221=DIRECTION('',(-1.E0,0.E0,0.E0));
#222=AXIS2_PLACEMENT_3D('',#219,#220,#221);
#223=PLANE('',#222);
#224=ORIENTED_EDGE('',*,*,#213,.F.);
#225=ORIENTED_EDGE('',*,*,#199,.F.);
#226=EDGE_LOOP('',(#224,#225));
#227=FACE_OUTER_BOUND('',#226,.F.);
#228=ORIENTED_EDGE('',*,*,#167,.F.);
#230=ORIENTED_EDGE('',*,*,#229,.F.);
#231=EDGE_LOOP('',(#228,#230));
#232=FACE_BOUND('',#231,.F.);
#233=ADVANCED_FACE('',(#227,#232),#223,.F.);
#234=CARTESIAN_POINT('',(0.E0,0.E0,0.E0));
#235=DIRECTION('',(0.E0,0.E0,1.E0));
#236=DIRECTION('',(-1.E0,0.E0,0.E0));
#237=AXIS2_PLACEMENT_3D('',#234,#235,#236);
#238=CYLINDRICAL_SURFACE('',#237,1.1E1);
#239=ORIENTED_EDGE('',*,*,#185,.T.);
#240=ORIENTED_EDGE('',*,*,#169,.T.);
#241=ORIENTED_EDGE('',*,*,#229,.T.);
#242=ORIENTED_EDGE('',*,*,#165,.F.);
#243=EDGE_LOOP('',(#239,#240,#241,#242));
#244=FACE_OUTER_BOUND('',#243,.F.);
#245=ADVANCED_FACE('',(#244),#238,.F.);
#246=CLOSED_SHELL('',(#173,#190,#205,#218,#233,#245));
#247=MANIFOLD_SOLID_BREP('',#246);
#248=FILL_AREA_STYLE_COLOUR('',#19);
#249=FILL_AREA_STYLE('',(#248));
#250=SURFACE_STYLE_FILL_AREA(#249);
#251=SURFACE_SIDE_STYLE('',(#250));
#252=SURFACE_STYLE_USAGE(.BOTH.,#251);
#253=PRESENTATION_STYLE_ASSIGNMENT((#252));
#48=STYLED_ITEM('',(#253),#247);
#254=(LENGTH_UNIT()NAMED_UNIT(*)SI_UNIT(.MILLI.,.METRE.));
#255=DIMENSIONAL_EXPONENTS(0.E0,0.E0,0.E0,0.E0,0.E0,0.E0,0.E0);
#256=(NAMED_UNIT(*)PLANE_ANGLE_UNIT()SI_UNIT($,.RADIAN.));
#257=PLANE_ANGLE_MEASURE_WITH_UNIT(PLANE_ANGLE_MEASURE(1.745329251994E-2),#256);
#258=(CONVERSION_BASED_UNIT('DEGREE',#257)NAMED_UNIT(#255)PLANE_ANGLE_UNIT());
#259=(NAMED_UNIT(*)SI_UNIT($,.STERADIAN.)SOLID_ANGLE_UNIT());
#260=UNCERTAINTY_MEASURE_WITH_UNIT(LENGTH_MEASURE(4.015464494500E-2),#254,
'closure',
'Maximum model space distance between geometric entities at asserted connectivities');
#261=(GEOMETRIC_REPRESENTATION_CONTEXT(3)GLOBAL_UNCERTAINTY_ASSIGNED_CONTEXT((
#260))GLOBAL_UNIT_ASSIGNED_CONTEXT((#254,#258,#259))REPRESENTATION_CONTEXT
('ID1','3'));
#263=MECHANICAL_DESIGN_GEOMETRIC_PRESENTATION_REPRESENTATION('',(#57,#65,#73,
#81,#88,#95,#103,#111,#119,#127,#134,#141,#48),#261);
#264=APPLICATION_CONTEXT(
'CONFIGURATION CONTROLLED 3D DESIGNS OF MECHANICAL PARTS AND ASSEMBLIES');
#265=APPLICATION_PROTOCOL_DEFINITION('international standard',
'config_control_design',1994,#264);
#266=DESIGN_CONTEXT('',#264,'design');
#267=MECHANICAL_CONTEXT('',#264,'mechanical');
#268=PRODUCT('97584040B','97584040B','NOT SPECIFIED',(#267));
#269=PRODUCT_DEFINITION_FORMATION_WITH_SPECIFIED_SOURCE('','LAST_VERSION',#268,
.MADE.);
#273=PRODUCT_CATEGORY('part','');
#274=PRODUCT_RELATED_PRODUCT_CATEGORY('detail','',(#268));
#275=PRODUCT_CATEGORY_RELATIONSHIP('','',#273,#274);
#276=SECURITY_CLASSIFICATION_LEVEL('unclassified');
#277=SECURITY_CLASSIFICATION('','',#276);
#278=CC_DESIGN_SECURITY_CLASSIFICATION(#277,(#269));
#279=APPROVAL_STATUS('approved');
#280=APPROVAL(#279,'');
#281=CC_DESIGN_APPROVAL(#280,(#277,#269,#270));
#282=CALENDAR_DATE(111,11,11);
#283=COORDINATED_UNIVERSAL_TIME_OFFSET(1,0,.AHEAD.);
#284=LOCAL_TIME(8,27,3.1E1,#283);
#285=DATE_AND_TIME(#282,#284);
#286=APPROVAL_DATE_TIME(#285,#280);
#287=DATE_TIME_ROLE('creation_date');
#288=CC_DESIGN_DATE_AND_TIME_ASSIGNMENT(#285,#287,(#270));
#289=DATE_TIME_ROLE('classification_date');
#290=CC_DESIGN_DATE_AND_TIME_ASSIGNMENT(#285,#289,(#277));
#291=PERSON('UNSPECIFIED','UNSPECIFIED',$,$,$,$);
#292=ORGANIZATION('UNSPECIFIED','UNSPECIFIED','UNSPECIFIED');
#293=PERSON_AND_ORGANIZATION(#291,#292);
#294=APPROVAL_ROLE('approver');
#295=APPROVAL_PERSON_ORGANIZATION(#293,#280,#294);
#296=PERSON_AND_ORGANIZATION_ROLE('creator');
#297=CC_DESIGN_PERSON_AND_ORGANIZATION_ASSIGNMENT(#293,#296,(#269,#270));
#298=PERSON_AND_ORGANIZATION_ROLE('design_supplier');
#299=CC_DESIGN_PERSON_AND_ORGANIZATION_ASSIGNMENT(#293,#298,(#269));
#300=PERSON_AND_ORGANIZATION_ROLE('classification_officer');
#301=CC_DESIGN_PERSON_AND_ORGANIZATION_ASSIGNMENT(#293,#300,(#277));
#302=PERSON_AND_ORGANIZATION_ROLE('design_owner');
#303=CC_DESIGN_PERSON_AND_ORGANIZATION_ASSIGNMENT(#293,#302,(#268));
#53=CIRCLE('',#52,1.25E1);
#62=CIRCLE('',#61,1.25E1);
#70=CIRCLE('',#69,1.1E1);
#78=CIRCLE('',#77,1.1E1);
#100=CIRCLE('',#99,1.25E1);
#108=CIRCLE('',#107,1.25E1);
#116=CIRCLE('',#115,1.1E1);
#124=CIRCLE('',#123,1.1E1);
#163=EDGE_CURVE('',#148,#144,#78,.T.);
#165=EDGE_CURVE('',#144,#145,#138,.T.);
#167=EDGE_CURVE('',#145,#149,#116,.T.);
#169=EDGE_CURVE('',#148,#149,#131,.T.);
#179=EDGE_CURVE('',#156,#152,#53,.T.);
#181=EDGE_CURVE('',#152,#156,#62,.T.);
#185=EDGE_CURVE('',#144,#148,#70,.T.);
#197=EDGE_CURVE('',#152,#153,#92,.T.);
#199=EDGE_CURVE('',#153,#157,#108,.T.);
#201=EDGE_CURVE('',#156,#157,#85,.T.);
#213=EDGE_CURVE('',#157,#153,#100,.T.);
#229=EDGE_CURVE('',#149,#145,#124,.T.);
#262=ADVANCED_BREP_SHAPE_REPRESENTATION('',(#247),#261);
#270=PRODUCT_DEFINITION('design','',#269,#266);
#271=PRODUCT_DEFINITION_SHAPE('','SHAPE FOR 97584040B.',#270);
#272=SHAPE_DEFINITION_REPRESENTATION(#271,#262);
ENDSEC;
END-ISO-10303-21;
