ISO-10303-21;
HEADER;
FILE_DESCRIPTION((''),'2;1');
FILE_NAME('LTK-1040-303-506','2012-01-25T',('dhelisch'),(''),
'PRO/ENGINEER BY PARAMETRIC TECHNOLOGY CORPORATION, 2007250',
'PRO/ENGINEER BY PARAMETRIC TECHNOLOGY CORPORATION, 2007250','');
FILE_SCHEMA(('CONFIG_CONTROL_DESIGN'));
ENDSEC;
DATA;
#1=COLOUR_RGB('',0.E0,0.E0,1.96E-1);
#2=COLOUR_RGB('',0.E0,0.E0,3.14E-1);
#3=COLOUR_RGB('',0.E0,1.96E-1,0.E0);
#4=COLOUR_RGB('',0.E0,3.14E-1,0.E0);
#5=COLOUR_RGB('',7.8E-2,7.8E-2,7.8E-2);
#6=COLOUR_RGB('',1.18E-1,1.18E-1,4.71E-1);
#7=COLOUR_RGB('',1.57E-1,1.57E-1,1.57E-1);
#8=COLOUR_RGB('',1.96E-1,0.E0,0.E0);
#9=COLOUR_RGB('',1.96E-1,0.E0,1.96E-1);
#10=COLOUR_RGB('',1.96E-1,5.88E-1,1.96E-1);
#11=COLOUR_RGB('',2.35E-1,2.35E-1,2.35E-1);
#12=COLOUR_RGB('',2.35E-1,2.35E-1,5.88E-1);
#13=COLOUR_RGB('',3.14E-1,3.14E-1,3.14E-1);
#14=COLOUR_RGB('',3.27543E-1,1.E0,6.33116E-1);
#15=COLOUR_RGB('',3.92E-1,0.E0,0.E0);
#16=COLOUR_RGB('',3.92E-1,0.E0,3.92E-1);
#17=COLOUR_RGB('',3.92E-1,3.92E-1,3.92E-1);
#18=COLOUR_RGB('',3.92E-1,3.92E-1,8.63E-1);
#19=COLOUR_RGB('',3.92E-1,5.88E-1,3.92E-1);
#20=COLOUR_RGB('',3.92E-1,5.88E-1,8.63E-1);
#21=COLOUR_RGB('',5.01961E-1,1.E0,5.01961E-1);
#22=COLOUR_RGB('',5.5E-1,5.6E-1,7.E-1);
#23=COLOUR_RGB('',5.88E-1,5.88E-1,5.88E-1);
#24=COLOUR_RGB('',5.88E-1,7.84E-1,5.88E-1);
#25=COLOUR_RGB('',6.2E-1,3.1E-1,6.5E-1);
#26=COLOUR_RGB('',6.8E-1,8.5E-1,1.E0);
#27=COLOUR_RGB('',8.784E-1,9.49E-1,1.E0);
#28=COLOUR_RGB('',9.8E-1,3.92E-1,0.E0);
#29=COLOUR_RGB('',9.8E-1,5.88E-1,0.E0);
#30=COLOUR_RGB('',9.8E-1,7.84E-1,0.E0);
#31=COLOUR_RGB('',1.E0,3.7E-1,3.8E-1);
#32=DRAUGHTING_PRE_DEFINED_COLOUR('white');
#34=DIRECTION('',(0.E0,-1.E0,0.E0));
#35=VECTOR('',#34,3.5E1);
#36=CARTESIAN_POINT('',(2.E0,3.5E1,0.E0));
#37=LINE('',#36,#35);
#38=DRAUGHTING_PRE_DEFINED_CURVE_FONT('continuous');
#39=CURVE_STYLE('',#38,POSITIVE_LENGTH_MEASURE(2.E-2),#14);
#40=PRESENTATION_STYLE_ASSIGNMENT((#39));
#41=STYLED_ITEM('',(#40),#37);
#42=DIRECTION('',(0.E0,1.E0,0.E0));
#43=VECTOR('',#42,3.5E1);
#44=CARTESIAN_POINT('',(-2.E0,0.E0,0.E0));
#45=LINE('',#44,#43);
#46=CURVE_STYLE('',#38,POSITIVE_LENGTH_MEASURE(2.E-2),#14);
#47=PRESENTATION_STYLE_ASSIGNMENT((#46));
#48=STYLED_ITEM('',(#47),#45);
#49=CARTESIAN_POINT('',(0.E0,0.E0,0.E0));
#50=DIRECTION('',(0.E0,-1.E0,0.E0));
#51=DIRECTION('',(1.E0,0.E0,0.E0));
#52=AXIS2_PLACEMENT_3D('',#49,#50,#51);
#54=CURVE_STYLE('',#38,POSITIVE_LENGTH_MEASURE(2.E-2),#14);
#55=PRESENTATION_STYLE_ASSIGNMENT((#54));
#56=STYLED_ITEM('',(#55),#53);
#57=CARTESIAN_POINT('',(0.E0,0.E0,0.E0));
#58=DIRECTION('',(0.E0,-1.E0,0.E0));
#59=DIRECTION('',(-1.E0,0.E0,0.E0));
#60=AXIS2_PLACEMENT_3D('',#57,#58,#59);
#62=CURVE_STYLE('',#38,POSITIVE_LENGTH_MEASURE(2.E-2),#14);
#63=PRESENTATION_STYLE_ASSIGNMENT((#62));
#64=STYLED_ITEM('',(#63),#61);
#65=CARTESIAN_POINT('',(0.E0,0.E0,0.E0));
#66=DIRECTION('',(0.E0,1.E0,0.E0));
#67=DIRECTION('',(1.E0,0.E0,0.E0));
#68=AXIS2_PLACEMENT_3D('',#65,#66,#67);
#70=CURVE_STYLE('',#38,POSITIVE_LENGTH_MEASURE(2.E-2),#14);
#71=PRESENTATION_STYLE_ASSIGNMENT((#70));
#72=STYLED_ITEM('',(#71),#69);
#73=CARTESIAN_POINT('',(0.E0,0.E0,0.E0));
#74=DIRECTION('',(0.E0,1.E0,0.E0));
#75=DIRECTION('',(-1.E0,0.E0,0.E0));
#76=AXIS2_PLACEMENT_3D('',#73,#74,#75);
#78=CURVE_STYLE('',#38,POSITIVE_LENGTH_MEASURE(2.E-2),#14);
#79=PRESENTATION_STYLE_ASSIGNMENT((#78));
#80=STYLED_ITEM('',(#79),#77);
#81=DIRECTION('',(0.E0,-1.E0,0.E0));
#82=VECTOR('',#81,1.E1);
#83=CARTESIAN_POINT('',(1.75E0,0.E0,0.E0));
#84=LINE('',#83,#82);
#85=CURVE_STYLE('',#38,POSITIVE_LENGTH_MEASURE(2.E-2),#14);
#86=PRESENTATION_STYLE_ASSIGNMENT((#85));
#87=STYLED_ITEM('',(#86),#84);
#88=DIRECTION('',(0.E0,1.E0,0.E0));
#89=VECTOR('',#88,1.E1);
#90=CARTESIAN_POINT('',(-1.75E0,-1.E1,0.E0));
#91=LINE('',#90,#89);
#92=CURVE_STYLE('',#38,POSITIVE_LENGTH_MEASURE(2.E-2),#14);
#93=PRESENTATION_STYLE_ASSIGNMENT((#92));
#94=STYLED_ITEM('',(#93),#91);
#95=CARTESIAN_POINT('',(0.E0,-1.E1,0.E0));
#96=DIRECTION('',(0.E0,-1.E0,0.E0));
#97=DIRECTION('',(1.E0,0.E0,0.E0));
#98=AXIS2_PLACEMENT_3D('',#95,#96,#97);
#100=CURVE_STYLE('',#38,POSITIVE_LENGTH_MEASURE(2.E-2),#14);
#101=PRESENTATION_STYLE_ASSIGNMENT((#100));
#102=STYLED_ITEM('',(#101),#99);
#103=CARTESIAN_POINT('',(0.E0,-1.E1,0.E0));
#104=DIRECTION('',(0.E0,-1.E0,0.E0));
#105=DIRECTION('',(-1.E0,0.E0,0.E0));
#106=AXIS2_PLACEMENT_3D('',#103,#104,#105);
#108=CURVE_STYLE('',#38,POSITIVE_LENGTH_MEASURE(2.E-2),#14);
#109=PRESENTATION_STYLE_ASSIGNMENT((#108));
#110=STYLED_ITEM('',(#109),#107);
#111=CARTESIAN_POINT('',(0.E0,3.5E1,0.E0));
#112=DIRECTION('',(0.E0,1.E0,0.E0));
#113=DIRECTION('',(1.E0,0.E0,0.E0));
#114=AXIS2_PLACEMENT_3D('',#111,#112,#113);
#116=CURVE_STYLE('',#38,POSITIVE_LENGTH_MEASURE(2.E-2),#14);
#117=PRESENTATION_STYLE_ASSIGNMENT((#116));
#118=STYLED_ITEM('',(#117),#115);
#119=CARTESIAN_POINT('',(0.E0,3.5E1,0.E0));
#120=DIRECTION('',(0.E0,1.E0,0.E0));
#121=DIRECTION('',(-1.E0,0.E0,0.E0));
#122=AXIS2_PLACEMENT_3D('',#119,#120,#121);
#124=CURVE_STYLE('',#38,POSITIVE_LENGTH_MEASURE(2.E-2),#14);
#125=PRESENTATION_STYLE_ASSIGNMENT((#124));
#126=STYLED_ITEM('',(#125),#123);
#127=CARTESIAN_POINT('',(0.E0,3.5E1,0.E0));
#128=DIRECTION('',(0.E0,1.E0,0.E0));
#129=DIRECTION('',(0.E0,0.E0,-1.E0));
#130=AXIS2_PLACEMENT_3D('',#127,#128,#129);
#132=CURVE_STYLE('',#38,POSITIVE_LENGTH_MEASURE(2.E-2),#14);
#133=PRESENTATION_STYLE_ASSIGNMENT((#132));
#134=STYLED_ITEM('',(#133),#131);
#135=CARTESIAN_POINT('',(0.E0,3.5E1,0.E0));
#136=DIRECTION('',(0.E0,1.E0,0.E0));
#137=DIRECTION('',(0.E0,0.E0,1.E0));
#138=AXIS2_PLACEMENT_3D('',#135,#136,#137);
#140=CURVE_STYLE('',#38,POSITIVE_LENGTH_MEASURE(2.E-2),#14);
#141=PRESENTATION_STYLE_ASSIGNMENT((#140));
#142=STYLED_ITEM('',(#141),#139);
#143=CARTESIAN_POINT('',(-1.E0,8.5E0,1.732050807569E0));
#144=CARTESIAN_POINT('',(-1.E0,8.419747177969E0,1.732050807569E0));
#145=CARTESIAN_POINT('',(-9.809560732553E-1,8.254961724432E0,1.743909334510E0));
#146=CARTESIAN_POINT('',(-8.835682208848E-1,8.007127082286E0,1.795921803272E0));
#147=CARTESIAN_POINT('',(-7.236371565630E-1,7.791759554357E0,1.868371775366E0));
#148=CARTESIAN_POINT('',(-5.011901961979E-1,7.620180027247E0,1.941515888279E0));
#149=CARTESIAN_POINT('',(-2.545011009823E-1,7.521532120838E0,1.988792267818E0));
#150=CARTESIAN_POINT('',(-3.158850656475E-4,7.489289032182E0,2.005552852904E0));
#151=CARTESIAN_POINT('',(2.529308659974E-1,7.521312419626E0,1.988904509190E0));
#152=CARTESIAN_POINT('',(4.978414201590E-1,7.618382207817E0,1.942363136623E0));
#153=CARTESIAN_POINT('',(7.213730463069E-1,7.789336295695E0,1.869291307525E0));
#154=CARTESIAN_POINT('',(8.819968068713E-1,8.004443646724E0,1.796715196670E0));
#155=CARTESIAN_POINT('',(9.801542935756E-1,8.251430739380E0,1.744370214119E0));
#156=CARTESIAN_POINT('',(1.E0,8.418305014648E0,1.732050807569E0));
#157=CARTESIAN_POINT('',(1.E0,8.5E0,1.732050807569E0));
#159=CURVE_STYLE('',#38,POSITIVE_LENGTH_MEASURE(2.E-2),#14);
#160=PRESENTATION_STYLE_ASSIGNMENT((#159));
#161=STYLED_ITEM('',(#160),#158);
#162=DIRECTION('',(0.E0,0.E0,1.E0));
#163=VECTOR('',#162,7.320508075689E-1);
#164=CARTESIAN_POINT('',(1.E0,8.5E0,1.E0));
#165=LINE('',#164,#163);
#166=CURVE_STYLE('',#38,POSITIVE_LENGTH_MEASURE(2.E-2),#14);
#167=PRESENTATION_STYLE_ASSIGNMENT((#166));
#168=STYLED_ITEM('',(#167),#165);
#169=DIRECTION('',(0.E0,0.E0,-1.E0));
#170=VECTOR('',#169,7.320508075689E-1);
#171=CARTESIAN_POINT('',(-1.E0,8.5E0,1.732050807569E0));
#172=LINE('',#171,#170);
#173=CURVE_STYLE('',#38,POSITIVE_LENGTH_MEASURE(2.E-2),#14);
#174=PRESENTATION_STYLE_ASSIGNMENT((#173));
#175=STYLED_ITEM('',(#174),#172);
#176=CARTESIAN_POINT('',(1.E0,8.5E0,1.732050807569E0));
#177=CARTESIAN_POINT('',(1.E0,8.580252822031E0,1.732050807569E0));
#178=CARTESIAN_POINT('',(9.809560732553E-1,8.745038275568E0,1.743909334510E0));
#179=CARTESIAN_POINT('',(8.835682208848E-1,8.992872917714E0,1.795921803272E0));
#180=CARTESIAN_POINT('',(7.236371565630E-1,9.208240445643E0,1.868371775366E0));
#181=CARTESIAN_POINT('',(5.011901961979E-1,9.379819972753E0,1.941515888279E0));
#182=CARTESIAN_POINT('',(2.545011009823E-1,9.478467879162E0,1.988792267818E0));
#183=CARTESIAN_POINT('',(3.158850656654E-4,9.510710967818E0,2.005552852904E0));
#184=CARTESIAN_POINT('',(-2.529308659974E-1,9.478687580374E0,1.988904509190E0));
#185=CARTESIAN_POINT('',(-4.978414201589E-1,9.381617792183E0,1.942363136623E0));
#186=CARTESIAN_POINT('',(-7.213730463069E-1,9.210663704305E0,1.869291307525E0));
#187=CARTESIAN_POINT('',(-8.819968068713E-1,8.995556353276E0,1.796715196670E0));
#188=CARTESIAN_POINT('',(-9.801542935756E-1,8.748569260620E0,1.744370214119E0));
#189=CARTESIAN_POINT('',(-1.E0,8.581694985352E0,1.732050807569E0));
#190=CARTESIAN_POINT('',(-1.E0,8.5E0,1.732050807569E0));
#192=CURVE_STYLE('',#38,POSITIVE_LENGTH_MEASURE(2.E-2),#14);
#193=PRESENTATION_STYLE_ASSIGNMENT((#192));
#194=STYLED_ITEM('',(#193),#191);
#195=CARTESIAN_POINT('',(0.E0,8.5E0,1.E0));
#196=DIRECTION('',(0.E0,1.E0,0.E0));
#197=DIRECTION('',(0.E0,0.E0,1.E0));
#198=AXIS2_PLACEMENT_3D('',#195,#196,#197);
#200=CURVE_STYLE('',#38,POSITIVE_LENGTH_MEASURE(2.E-2),#14);
#201=PRESENTATION_STYLE_ASSIGNMENT((#200));
#202=STYLED_ITEM('',(#201),#199);
#203=CARTESIAN_POINT('',(0.E0,8.5E0,1.E0));
#204=DIRECTION('',(0.E0,1.E0,0.E0));
#205=DIRECTION('',(-1.E0,0.E0,0.E0));
#206=AXIS2_PLACEMENT_3D('',#203,#204,#205);
#208=CURVE_STYLE('',#38,POSITIVE_LENGTH_MEASURE(2.E-2),#14);
#209=PRESENTATION_STYLE_ASSIGNMENT((#208));
#210=STYLED_ITEM('',(#209),#207);
#211=CARTESIAN_POINT('',(0.E0,8.5E0,1.E0));
#212=DIRECTION('',(0.E0,0.E0,1.E0));
#213=DIRECTION('',(1.E0,0.E0,0.E0));
#214=AXIS2_PLACEMENT_3D('',#211,#212,#213);
#216=CURVE_STYLE('',#38,POSITIVE_LENGTH_MEASURE(2.E-2),#14);
#217=PRESENTATION_STYLE_ASSIGNMENT((#216));
#218=STYLED_ITEM('',(#217),#215);
#219=CARTESIAN_POINT('',(0.E0,8.5E0,1.E0));
#220=DIRECTION('',(0.E0,0.E0,1.E0));
#221=DIRECTION('',(-1.E0,0.E0,0.E0));
#222=AXIS2_PLACEMENT_3D('',#219,#220,#221);
#224=CURVE_STYLE('',#38,POSITIVE_LENGTH_MEASURE(2.E-2),#14);
#225=PRESENTATION_STYLE_ASSIGNMENT((#224));
#226=STYLED_ITEM('',(#225),#223);
#227=CARTESIAN_POINT('',(2.E0,3.5E1,0.E0));
#228=CARTESIAN_POINT('',(2.E0,0.E0,0.E0));
#229=VERTEX_POINT('',#227);
#230=VERTEX_POINT('',#228);
#231=CARTESIAN_POINT('',(-2.E0,0.E0,0.E0));
#232=VERTEX_POINT('',#231);
#233=CARTESIAN_POINT('',(-2.E0,3.5E1,0.E0));
#234=VERTEX_POINT('',#233);
#235=CARTESIAN_POINT('',(1.75E0,0.E0,0.E0));
#236=CARTESIAN_POINT('',(1.75E0,-1.E1,0.E0));
#237=VERTEX_POINT('',#235);
#238=VERTEX_POINT('',#236);
#239=CARTESIAN_POINT('',(-1.75E0,-1.E1,0.E0));
#240=VERTEX_POINT('',#239);
#241=CARTESIAN_POINT('',(-1.75E0,0.E0,0.E0));
#242=VERTEX_POINT('',#241);
#243=CARTESIAN_POINT('',(1.E0,8.5E0,1.E0));
#244=CARTESIAN_POINT('',(1.E0,8.5E0,1.732050807569E0));
#245=VERTEX_POINT('',#243);
#246=VERTEX_POINT('',#244);
#247=VERTEX_POINT('',#190);
#248=CARTESIAN_POINT('',(-1.E0,8.5E0,1.E0));
#249=VERTEX_POINT('',#248);
#250=CARTESIAN_POINT('',(0.E0,8.5E0,2.E0));
#251=VERTEX_POINT('',#250);
#252=CARTESIAN_POINT('',(0.E0,3.5E1,-1.989974874213E0));
#253=CARTESIAN_POINT('',(0.E0,3.5E1,1.989974874213E0));
#254=VERTEX_POINT('',#252);
#255=VERTEX_POINT('',#253);
#256=CARTESIAN_POINT('',(0.E0,1.75E1,0.E0));
#257=DIRECTION('',(0.E0,-1.E0,0.E0));
#258=DIRECTION('',(1.E0,0.E0,0.E0));
#259=AXIS2_PLACEMENT_3D('',#256,#257,#258);
#260=CYLINDRICAL_SURFACE('',#259,2.E0);
#262=ORIENTED_EDGE('',*,*,#261,.F.);
#264=ORIENTED_EDGE('',*,*,#263,.T.);
#266=ORIENTED_EDGE('',*,*,#265,.F.);
#268=ORIENTED_EDGE('',*,*,#267,.T.);
#269=EDGE_LOOP('',(#262,#264,#266,#268));
#270=FACE_OUTER_BOUND('',#269,.F.);
#271=ADVANCED_FACE('',(#270),#260,.T.);
#272=CARTESIAN_POINT('',(0.E0,1.75E1,0.E0));
#273=DIRECTION('',(0.E0,-1.E0,0.E0));
#274=DIRECTION('',(1.E0,0.E0,0.E0));
#275=AXIS2_PLACEMENT_3D('',#272,#273,#274);
#276=CYLINDRICAL_SURFACE('',#275,2.E0);
#277=ORIENTED_EDGE('',*,*,#261,.T.);
#279=ORIENTED_EDGE('',*,*,#278,.T.);
#280=ORIENTED_EDGE('',*,*,#265,.T.);
#282=ORIENTED_EDGE('',*,*,#281,.T.);
#283=EDGE_LOOP('',(#277,#279,#280,#282));
#284=FACE_OUTER_BOUND('',#283,.F.);
#286=ORIENTED_EDGE('',*,*,#285,.T.);
#288=ORIENTED_EDGE('',*,*,#287,.T.);
#289=EDGE_LOOP('',(#286,#288));
#290=FACE_BOUND('',#289,.F.);
#291=ADVANCED_FACE('',(#284,#290),#276,.T.);
#292=CARTESIAN_POINT('',(0.E0,0.E0,0.E0));
#293=DIRECTION('',(0.E0,-1.E0,0.E0));
#294=DIRECTION('',(-1.E0,0.E0,0.E0));
#295=AXIS2_PLACEMENT_3D('',#292,#293,#294);
#296=PLANE('',#295);
#297=ORIENTED_EDGE('',*,*,#278,.F.);
#298=ORIENTED_EDGE('',*,*,#267,.F.);
#299=EDGE_LOOP('',(#297,#298));
#300=FACE_OUTER_BOUND('',#299,.F.);
#302=ORIENTED_EDGE('',*,*,#301,.F.);
#304=ORIENTED_EDGE('',*,*,#303,.F.);
#305=EDGE_LOOP('',(#302,#304));
#306=FACE_BOUND('',#305,.F.);
#307=ADVANCED_FACE('',(#300,#306),#296,.T.);
#308=CARTESIAN_POINT('',(0.E0,-5.E0,0.E0));
#309=DIRECTION('',(0.E0,-1.E0,0.E0));
#310=DIRECTION('',(1.E0,0.E0,0.E0));
#311=AXIS2_PLACEMENT_3D('',#308,#309,#310);
#312=CYLINDRICAL_SURFACE('',#311,1.75E0);
#314=ORIENTED_EDGE('',*,*,#313,.F.);
#315=ORIENTED_EDGE('',*,*,#301,.T.);
#317=ORIENTED_EDGE('',*,*,#316,.F.);
#319=ORIENTED_EDGE('',*,*,#318,.T.);
#320=EDGE_LOOP('',(#314,#315,#317,#319));
#321=FACE_OUTER_BOUND('',#320,.F.);
#322=ADVANCED_FACE('',(#321),#312,.T.);
#323=FILL_AREA_STYLE_COLOUR('',#23);
#324=FILL_AREA_STYLE('',(#323));
#325=SURFACE_STYLE_FILL_AREA(#324);
#326=SURFACE_SIDE_STYLE('',(#325));
#327=SURFACE_STYLE_USAGE(.POSITIVE.,#326);
#328=FILL_AREA_STYLE_COLOUR('',#14);
#329=FILL_AREA_STYLE('',(#328));
#330=SURFACE_STYLE_FILL_AREA(#329);
#331=SURFACE_SIDE_STYLE('',(#330));
#332=SURFACE_STYLE_USAGE(.NEGATIVE.,#331);
#333=PRESENTATION_STYLE_ASSIGNMENT((#327,#332));
#334=OVER_RIDING_STYLED_ITEM('',(#333),#322,#33);
#335=CARTESIAN_POINT('',(0.E0,-5.E0,0.E0));
#336=DIRECTION('',(0.E0,-1.E0,0.E0));
#337=DIRECTION('',(1.E0,0.E0,0.E0));
#338=AXIS2_PLACEMENT_3D('',#335,#336,#337);
#339=CYLINDRICAL_SURFACE('',#338,1.75E0);
#340=ORIENTED_EDGE('',*,*,#313,.T.);
#342=ORIENTED_EDGE('',*,*,#341,.T.);
#343=ORIENTED_EDGE('',*,*,#316,.T.);
#344=ORIENTED_EDGE('',*,*,#303,.T.);
#345=EDGE_LOOP('',(#340,#342,#343,#344));
#346=FACE_OUTER_BOUND('',#345,.F.);
#347=ADVANCED_FACE('',(#346),#339,.T.);
#348=FILL_AREA_STYLE_COLOUR('',#23);
#349=FILL_AREA_STYLE('',(#348));
#350=SURFACE_STYLE_FILL_AREA(#349);
#351=SURFACE_SIDE_STYLE('',(#350));
#352=SURFACE_STYLE_USAGE(.POSITIVE.,#351);
#353=FILL_AREA_STYLE_COLOUR('',#14);
#354=FILL_AREA_STYLE('',(#353));
#355=SURFACE_STYLE_FILL_AREA(#354);
#356=SURFACE_SIDE_STYLE('',(#355));
#357=SURFACE_STYLE_USAGE(.NEGATIVE.,#356);
#358=PRESENTATION_STYLE_ASSIGNMENT((#352,#357));
#359=OVER_RIDING_STYLED_ITEM('',(#358),#347,#33);
#360=CARTESIAN_POINT('',(0.E0,-1.E1,0.E0));
#361=DIRECTION('',(0.E0,-1.E0,0.E0));
#362=DIRECTION('',(-1.E0,0.E0,0.E0));
#363=AXIS2_PLACEMENT_3D('',#360,#361,#362);
#364=PLANE('',#363);
#365=ORIENTED_EDGE('',*,*,#341,.F.);
#366=ORIENTED_EDGE('',*,*,#318,.F.);
#367=EDGE_LOOP('',(#365,#366));
#368=FACE_OUTER_BOUND('',#367,.F.);
#369=ADVANCED_FACE('',(#368),#364,.T.);
#370=FILL_AREA_STYLE_COLOUR('',#23);
#371=FILL_AREA_STYLE('',(#370));
#372=SURFACE_STYLE_FILL_AREA(#371);
#373=SURFACE_SIDE_STYLE('',(#372));
#374=SURFACE_STYLE_USAGE(.POSITIVE.,#373);
#375=FILL_AREA_STYLE_COLOUR('',#14);
#376=FILL_AREA_STYLE('',(#375));
#377=SURFACE_STYLE_FILL_AREA(#376);
#378=SURFACE_SIDE_STYLE('',(#377));
#379=SURFACE_STYLE_USAGE(.NEGATIVE.,#378);
#380=PRESENTATION_STYLE_ASSIGNMENT((#374,#379));
#381=OVER_RIDING_STYLED_ITEM('',(#380),#369,#33);
#382=CARTESIAN_POINT('',(0.E0,3.5E1,0.E0));
#383=DIRECTION('',(0.E0,1.E0,0.E0));
#384=DIRECTION('',(1.E0,0.E0,0.E0));
#385=AXIS2_PLACEMENT_3D('',#382,#383,#384);
#386=PLANE('',#385);
#387=ORIENTED_EDGE('',*,*,#263,.F.);
#388=ORIENTED_EDGE('',*,*,#281,.F.);
#389=EDGE_LOOP('',(#387,#388));
#390=FACE_OUTER_BOUND('',#389,.F.);
#392=ORIENTED_EDGE('',*,*,#391,.T.);
#394=ORIENTED_EDGE('',*,*,#393,.T.);
#395=EDGE_LOOP('',(#392,#394));
#396=FACE_BOUND('',#395,.F.);
#397=ADVANCED_FACE('',(#390,#396),#386,.T.);
#398=CARTESIAN_POINT('',(0.E0,3.48E1,0.E0));
#399=DIRECTION('',(0.E0,0.E0,1.E0));
#400=DIRECTION('',(1.E0,0.E0,0.E0));
#401=AXIS2_PLACEMENT_3D('',#398,#399,#400);
#402=SPHERICAL_SURFACE('',#401,2.E0);
#403=ORIENTED_EDGE('',*,*,#391,.F.);
#404=ORIENTED_EDGE('',*,*,#393,.F.);
#405=EDGE_LOOP('',(#403,#404));
#406=FACE_OUTER_BOUND('',#405,.F.);
#407=ADVANCED_FACE('',(#406),#402,.T.);
#408=CARTESIAN_POINT('',(0.E0,8.5E0,3.E0));
#409=DIRECTION('',(0.E0,0.E0,-1.E0));
#410=DIRECTION('',(1.E0,0.E0,0.E0));
#411=AXIS2_PLACEMENT_3D('',#408,#409,#410);
#412=CYLINDRICAL_SURFACE('',#411,1.E0);
#414=ORIENTED_EDGE('',*,*,#413,.T.);
#415=ORIENTED_EDGE('',*,*,#285,.F.);
#417=ORIENTED_EDGE('',*,*,#416,.T.);
#419=ORIENTED_EDGE('',*,*,#418,.T.);
#420=EDGE_LOOP('',(#414,#415,#417,#419));
#421=FACE_OUTER_BOUND('',#420,.F.);
#422=ADVANCED_FACE('',(#421),#412,.F.);
#423=CARTESIAN_POINT('',(0.E0,8.5E0,3.E0));
#424=DIRECTION('',(0.E0,0.E0,-1.E0));
#425=DIRECTION('',(1.E0,0.E0,0.E0));
#426=AXIS2_PLACEMENT_3D('',#423,#424,#425);
#427=CYLINDRICAL_SURFACE('',#426,1.E0);
#428=ORIENTED_EDGE('',*,*,#413,.F.);
#430=ORIENTED_EDGE('',*,*,#429,.T.);
#431=ORIENTED_EDGE('',*,*,#416,.F.);
#432=ORIENTED_EDGE('',*,*,#287,.F.);
#433=EDGE_LOOP('',(#428,#430,#431,#432));
#434=FACE_OUTER_BOUND('',#433,.F.);
#435=ADVANCED_FACE('',(#434),#427,.F.);
#436=CARTESIAN_POINT('',(0.E0,8.5E0,1.E0));
#437=DIRECTION('',(0.E0,0.E0,1.E0));
#438=DIRECTION('',(1.E0,0.E0,0.E0));
#439=AXIS2_PLACEMENT_3D('',#436,#437,#438);
#440=SPHERICAL_SURFACE('',#439,1.E0);
#442=ORIENTED_EDGE('',*,*,#441,.F.);
#444=ORIENTED_EDGE('',*,*,#443,.F.);
#445=ORIENTED_EDGE('',*,*,#429,.F.);
#446=EDGE_LOOP('',(#442,#444,#445));
#447=FACE_OUTER_BOUND('',#446,.F.);
#448=ADVANCED_FACE('',(#447),#440,.T.);
#449=FILL_AREA_STYLE_COLOUR('',#23);
#450=FILL_AREA_STYLE('',(#449));
#451=SURFACE_STYLE_FILL_AREA(#450);
#452=SURFACE_SIDE_STYLE('',(#451));
#453=SURFACE_STYLE_USAGE(.POSITIVE.,#452);
#454=FILL_AREA_STYLE_COLOUR('',#14);
#455=FILL_AREA_STYLE('',(#454));
#456=SURFACE_STYLE_FILL_AREA(#455);
#457=SURFACE_SIDE_STYLE('',(#456));
#458=SURFACE_STYLE_USAGE(.NEGATIVE.,#457);
#459=PRESENTATION_STYLE_ASSIGNMENT((#453,#458));
#460=OVER_RIDING_STYLED_ITEM('',(#459),#448,#33);
#461=CARTESIAN_POINT('',(0.E0,8.5E0,1.E0));
#462=DIRECTION('',(0.E0,0.E0,1.E0));
#463=DIRECTION('',(1.E0,0.E0,0.E0));
#464=AXIS2_PLACEMENT_3D('',#461,#462,#463);
#465=SPHERICAL_SURFACE('',#464,1.E0);
#466=ORIENTED_EDGE('',*,*,#441,.T.);
#467=ORIENTED_EDGE('',*,*,#418,.F.);
#468=ORIENTED_EDGE('',*,*,#443,.T.);
#469=EDGE_LOOP('',(#466,#467,#468));
#470=FACE_OUTER_BOUND('',#469,.F.);
#471=ADVANCED_FACE('',(#470),#465,.T.);
#472=FILL_AREA_STYLE_COLOUR('',#23);
#473=FILL_AREA_STYLE('',(#472));
#474=SURFACE_STYLE_FILL_AREA(#473);
#475=SURFACE_SIDE_STYLE('',(#474));
#476=SURFACE_STYLE_USAGE(.POSITIVE.,#475);
#477=FILL_AREA_STYLE_COLOUR('',#14);
#478=FILL_AREA_STYLE('',(#477));
#479=SURFACE_STYLE_FILL_AREA(#478);
#480=SURFACE_SIDE_STYLE('',(#479));
#481=SURFACE_STYLE_USAGE(.NEGATIVE.,#480);
#482=PRESENTATION_STYLE_ASSIGNMENT((#476,#481));
#483=OVER_RIDING_STYLED_ITEM('',(#482),#471,#33);
#484=CLOSED_SHELL('',(#271,#291,#307,#322,#347,#369,#397,#407,#422,#435,#448,
#471));
#485=MANIFOLD_SOLID_BREP('',#484);
#486=FILL_AREA_STYLE_COLOUR('',#14);
#487=FILL_AREA_STYLE('',(#486));
#488=SURFACE_STYLE_FILL_AREA(#487);
#489=SURFACE_SIDE_STYLE('',(#488));
#490=SURFACE_STYLE_USAGE(.BOTH.,#489);
#491=PRESENTATION_STYLE_ASSIGNMENT((#490));
#33=STYLED_ITEM('',(#491),#485);
#492=(LENGTH_UNIT()NAMED_UNIT(*)SI_UNIT(.MILLI.,.METRE.));
#493=DIMENSIONAL_EXPONENTS(0.E0,0.E0,0.E0,0.E0,0.E0,0.E0,0.E0);
#494=(NAMED_UNIT(*)PLANE_ANGLE_UNIT()SI_UNIT($,.RADIAN.));
#495=PLANE_ANGLE_MEASURE_WITH_UNIT(PLANE_ANGLE_MEASURE(1.745329251994E-2),#494);
#496=(CONVERSION_BASED_UNIT('DEGREE',#495)NAMED_UNIT(#493)PLANE_ANGLE_UNIT());
#497=(NAMED_UNIT(*)SI_UNIT($,.STERADIAN.)SOLID_ANGLE_UNIT());
#498=UNCERTAINTY_MEASURE_WITH_UNIT(LENGTH_MEASURE(4.713875501491E-3),#492,
'closure',
'Maximum model space distance between geometric entities at asserted connectivities');
#499=(GEOMETRIC_REPRESENTATION_CONTEXT(3)GLOBAL_UNCERTAINTY_ASSIGNED_CONTEXT((
#498))GLOBAL_UNIT_ASSIGNED_CONTEXT((#492,#496,#497))REPRESENTATION_CONTEXT
('ID1','3'));
#501=MECHANICAL_DESIGN_GEOMETRIC_PRESENTATION_REPRESENTATION('',(#41,#48,#56,
#64,#72,#80,#87,#94,#102,#110,#118,#126,#134,#142,#161,#168,#175,#194,#202,#210,
#218,#226,#334,#359,#381,#460,#483,#33),#499);
#502=APPLICATION_CONTEXT(
'CONFIGURATION CONTROLLED 3D DESIGNS OF MECHANICAL PARTS AND ASSEMBLIES');
#503=APPLICATION_PROTOCOL_DEFINITION('international standard',
'config_control_design',1994,#502);
#504=DESIGN_CONTEXT('',#502,'design');
#505=MECHANICAL_CONTEXT('',#502,'mechanical');
#506=PRODUCT('LTK-1040-303-506','LTK-1040-303-506','NOT SPECIFIED',(#505));
#507=PRODUCT_DEFINITION_FORMATION_WITH_SPECIFIED_SOURCE('1','LAST_VERSION',#506,
.MADE.);
#511=PRODUCT_CATEGORY('part','');
#512=PRODUCT_RELATED_PRODUCT_CATEGORY('detail','',(#506));
#513=PRODUCT_CATEGORY_RELATIONSHIP('','',#511,#512);
#514=SECURITY_CLASSIFICATION_LEVEL('unclassified');
#515=SECURITY_CLASSIFICATION('','',#514);
#516=CC_DESIGN_SECURITY_CLASSIFICATION(#515,(#507));
#517=APPROVAL_STATUS('approved');
#518=APPROVAL(#517,'');
#519=CC_DESIGN_APPROVAL(#518,(#515,#507,#508));
#520=CALENDAR_DATE(112,25,1);
#521=COORDINATED_UNIVERSAL_TIME_OFFSET(1,0,.AHEAD.);
#522=LOCAL_TIME(10,22,2.6E1,#521);
#523=DATE_AND_TIME(#520,#522);
#524=APPROVAL_DATE_TIME(#523,#518);
#525=DATE_TIME_ROLE('creation_date');
#526=CC_DESIGN_DATE_AND_TIME_ASSIGNMENT(#523,#525,(#508));
#527=DATE_TIME_ROLE('classification_date');
#528=CC_DESIGN_DATE_AND_TIME_ASSIGNMENT(#523,#527,(#515));
#529=PERSON('UNSPECIFIED','UNSPECIFIED',$,$,$,$);
#530=ORGANIZATION('UNSPECIFIED','UNSPECIFIED','UNSPECIFIED');
#531=PERSON_AND_ORGANIZATION(#529,#530);
#532=APPROVAL_ROLE('approver');
#533=APPROVAL_PERSON_ORGANIZATION(#531,#518,#532);
#534=PERSON_AND_ORGANIZATION_ROLE('creator');
#535=CC_DESIGN_PERSON_AND_ORGANIZATION_ASSIGNMENT(#531,#534,(#507,#508));
#536=PERSON_AND_ORGANIZATION_ROLE('design_supplier');
#537=CC_DESIGN_PERSON_AND_ORGANIZATION_ASSIGNMENT(#531,#536,(#507));
#538=PERSON_AND_ORGANIZATION_ROLE('classification_officer');
#539=CC_DESIGN_PERSON_AND_ORGANIZATION_ASSIGNMENT(#531,#538,(#515));
#540=PERSON_AND_ORGANIZATION_ROLE('design_owner');
#541=CC_DESIGN_PERSON_AND_ORGANIZATION_ASSIGNMENT(#531,#540,(#506));
#53=CIRCLE('',#52,2.E0);
#61=CIRCLE('',#60,2.E0);
#69=CIRCLE('',#68,1.75E0);
#77=CIRCLE('',#76,1.75E0);
#99=CIRCLE('',#98,1.75E0);
#107=CIRCLE('',#106,1.75E0);
#115=CIRCLE('',#114,2.E0);
#123=CIRCLE('',#122,2.E0);
#131=CIRCLE('',#130,1.989974874213E0);
#139=CIRCLE('',#138,1.989974874213E0);
#158=B_SPLINE_CURVE_WITH_KNOTS('',3,(#143,#144,#145,#146,#147,#148,#149,#150,
#151,#152,#153,#154,#155,#156,#157),.UNSPECIFIED.,.F.,.F.,(4,1,1,1,1,1,1,1,1,1,
1,1,4),(0.E0,8.333333333333E-2,1.666666666667E-1,2.5E-1,3.333333333333E-1,
4.166666666667E-1,5.E-1,5.833333333333E-1,6.666666666667E-1,7.5E-1,
8.333333333333E-1,9.166666666667E-1,1.E0),.UNSPECIFIED.);
#191=B_SPLINE_CURVE_WITH_KNOTS('',3,(#176,#177,#178,#179,#180,#181,#182,#183,
#184,#185,#186,#187,#188,#189,#190),.UNSPECIFIED.,.F.,.F.,(4,1,1,1,1,1,1,1,1,1,
1,1,4),(0.E0,8.333333333333E-2,1.666666666667E-1,2.5E-1,3.333333333333E-1,
4.166666666667E-1,5.E-1,5.833333333333E-1,6.666666666667E-1,7.5E-1,
8.333333333333E-1,9.166666666667E-1,1.E0),.UNSPECIFIED.);
#199=CIRCLE('',#198,1.E0);
#207=CIRCLE('',#206,1.E0);
#215=CIRCLE('',#214,1.E0);
#223=CIRCLE('',#222,1.E0);
#261=EDGE_CURVE('',#229,#230,#37,.T.);
#263=EDGE_CURVE('',#229,#234,#115,.T.);
#265=EDGE_CURVE('',#232,#234,#45,.T.);
#267=EDGE_CURVE('',#232,#230,#61,.T.);
#278=EDGE_CURVE('',#230,#232,#53,.T.);
#281=EDGE_CURVE('',#234,#229,#123,.T.);
#285=EDGE_CURVE('',#247,#246,#158,.T.);
#287=EDGE_CURVE('',#246,#247,#191,.T.);
#301=EDGE_CURVE('',#237,#242,#69,.T.);
#303=EDGE_CURVE('',#242,#237,#77,.T.);
#313=EDGE_CURVE('',#237,#238,#84,.T.);
#316=EDGE_CURVE('',#240,#242,#91,.T.);
#318=EDGE_CURVE('',#240,#238,#107,.T.);
#341=EDGE_CURVE('',#238,#240,#99,.T.);
#391=EDGE_CURVE('',#254,#255,#131,.T.);
#393=EDGE_CURVE('',#255,#254,#139,.T.);
#413=EDGE_CURVE('',#245,#246,#165,.T.);
#416=EDGE_CURVE('',#247,#249,#172,.T.);
#418=EDGE_CURVE('',#249,#245,#223,.T.);
#429=EDGE_CURVE('',#245,#249,#215,.T.);
#441=EDGE_CURVE('',#251,#245,#199,.T.);
#443=EDGE_CURVE('',#249,#251,#207,.T.);
#500=ADVANCED_BREP_SHAPE_REPRESENTATION('',(#485),#499);
#508=PRODUCT_DEFINITION('design','',#507,#504);
#509=PRODUCT_DEFINITION_SHAPE('','SHAPE FOR LTK-1040-303-506.',#508);
#510=SHAPE_DEFINITION_REPRESENTATION(#509,#500);
ENDSEC;
END-ISO-10303-21;
