ISO-10303-21;
HEADER;
FILE_DESCRIPTION((''),'2;1');
FILE_NAME('PRT0002','2012-02-07T',('dhelisch'),(''),
'PRO/ENGINEER BY PARAMETRIC TECHNOLOGY CORPORATION, 2007250',
'PRO/ENGINEER BY PARAMETRIC TECHNOLOGY CORPORATION, 2007250','');
FILE_SCHEMA(('CONFIG_CONTROL_DESIGN'));
ENDSEC;
DATA;
#1=DRAUGHTING_PRE_DEFINED_COLOUR('black');
#2=COLOUR_RGB('',0.E0,0.E0,1.96E-1);
#3=COLOUR_RGB('',0.E0,0.E0,3.14E-1);
#4=COLOUR_RGB('',0.E0,0.E0,6.E-1);
#5=COLOUR_RGB('',0.E0,0.E0,8.E-1);
#6=COLOUR_RGB('',0.E0,1.96E-1,0.E0);
#7=COLOUR_RGB('',0.E0,3.14E-1,0.E0);
#8=COLOUR_RGB('',0.E0,5.490196078431E-1,1.E0);
#9=COLOUR_RGB('',0.E0,6.E-1,0.E0);
#10=COLOUR_RGB('',0.E0,6.E-1,4.E-1);
#11=COLOUR_RGB('',0.E0,8.E-1,0.E0);
#12=DRAUGHTING_PRE_DEFINED_COLOUR('green');
#13=DRAUGHTING_PRE_DEFINED_COLOUR('cyan');
#14=COLOUR_RGB('',1.176470588235E-2,1.176470588235E-2,1.E0);
#15=COLOUR_RGB('',7.8E-2,7.8E-2,7.8E-2);
#16=COLOUR_RGB('',1.18E-1,1.18E-1,4.71E-1);
#17=COLOUR_RGB('',1.57E-1,1.57E-1,1.57E-1);
#18=COLOUR_RGB('',1.96E-1,0.E0,0.E0);
#19=COLOUR_RGB('',1.96E-1,0.E0,1.96E-1);
#20=COLOUR_RGB('',1.96E-1,5.88E-1,1.96E-1);
#21=COLOUR_RGB('',2.E-1,2.E-1,0.E0);
#22=COLOUR_RGB('',2.039215686275E-1,6.274509803922E-1,9.372549019608E-1);
#23=COLOUR_RGB('',2.156862745098E-1,1.E0,1.490196078431E-1);
#24=COLOUR_RGB('',2.352941176471E-1,2.196078431373E-1,1.E0);
#25=COLOUR_RGB('',2.35E-1,2.35E-1,2.35E-1);
#26=COLOUR_RGB('',2.35E-1,2.35E-1,5.88E-1);
#27=COLOUR_RGB('',3.098039215686E-1,5.215686274510E-1,1.411764705882E-1);
#28=COLOUR_RGB('',3.098039215686E-1,1.E0,1.E0);
#29=COLOUR_RGB('',3.14E-1,3.14E-1,3.14E-1);
#30=COLOUR_RGB('',3.27543E-1,1.E0,6.33116E-1);
#31=COLOUR_RGB('',3.92E-1,0.E0,0.E0);
#32=COLOUR_RGB('',3.92E-1,0.E0,3.92E-1);
#33=COLOUR_RGB('',3.92E-1,3.92E-1,3.92E-1);
#34=COLOUR_RGB('',3.92E-1,3.92E-1,8.63E-1);
#35=COLOUR_RGB('',3.92E-1,5.88E-1,3.92E-1);
#36=COLOUR_RGB('',3.92E-1,5.88E-1,8.63E-1);
#37=COLOUR_RGB('',3.921568627451E-1,1.E0,4.941176470588E-1);
#38=COLOUR_RGB('',4.E-1,4.E-1,0.E0);
#39=COLOUR_RGB('',4.E-1,4.E-1,1.E0);
#40=COLOUR_RGB('',4.117647058824E-1,0.E0,2.196078431373E-1);
#41=COLOUR_RGB('',4.235294117647E-1,3.176470588235E-1,1.960784313725E-1);
#42=COLOUR_RGB('',5.01961E-1,1.E0,5.01961E-1);
#43=COLOUR_RGB('',5.137254901961E-1,0.E0,0.E0);
#44=COLOUR_RGB('',5.137254901961E-1,5.137254901961E-1,5.137254901961E-1);
#45=COLOUR_RGB('',5.5E-1,5.6E-1,7.E-1);
#46=COLOUR_RGB('',5.803921568627E-1,0.E0,1.607843137255E-1);
#47=COLOUR_RGB('',5.88E-1,5.88E-1,5.88E-1);
#48=COLOUR_RGB('',5.88E-1,7.84E-1,5.88E-1);
#49=COLOUR_RGB('',6.E-1,6.E-1,0.E0);
#50=COLOUR_RGB('',6.E-1,6.E-1,1.E0);
#51=COLOUR_RGB('',6.E-1,7.019607843137E-1,8.E-1);
#52=COLOUR_RGB('',6.E-1,1.E0,6.E-1);
#53=COLOUR_RGB('',6.2E-1,3.1E-1,6.5E-1);
#54=COLOUR_RGB('',6.666666666667E-1,4.627450980392E-1,2.196078431373E-1);
#55=COLOUR_RGB('',6.8E-1,8.5E-1,1.E0);
#56=COLOUR_RGB('',6.823529411765E-1,5.098039215686E-1,3.176470588235E-1);
#57=COLOUR_RGB('',7.019607843137E-1,1.E0,1.E0);
#58=COLOUR_RGB('',7.098039215686E-1,7.019607843137E-1,6.784313725490E-1);
#59=COLOUR_RGB('',8.E-1,0.E0,0.E0);
#60=COLOUR_RGB('',8.E-1,8.E-1,1.E0);
#61=COLOUR_RGB('',8.E-1,9.215686274510E-1,0.E0);
#62=COLOUR_RGB('',8.E-1,1.E0,8.E-1);
#63=COLOUR_RGB('',8.235294117647E-1,6.156862745098E-1,3.843137254902E-1);
#64=COLOUR_RGB('',8.784E-1,9.49E-1,1.E0);
#65=COLOUR_RGB('',8.941176470588E-1,9.098039215686E-1,7.882352941176E-1);
#66=COLOUR_RGB('',9.019607843137E-1,4.117647058824E-1,4.117647058824E-1);
#67=COLOUR_RGB('',9.8E-1,3.92E-1,0.E0);
#68=COLOUR_RGB('',9.803921568627E-1,5.411764705882E-1,3.411764705882E-1);
#69=COLOUR_RGB('',9.8E-1,5.88E-1,0.E0);
#70=COLOUR_RGB('',9.8E-1,7.84E-1,0.E0);
#71=DRAUGHTING_PRE_DEFINED_COLOUR('red');
#72=DRAUGHTING_PRE_DEFINED_COLOUR('magenta');
#73=COLOUR_RGB('',1.E0,2.E-1,2.E-1);
#74=COLOUR_RGB('',1.E0,3.7E-1,3.8E-1);
#75=COLOUR_RGB('',1.E0,6.E-1,6.E-1);
#76=COLOUR_RGB('',1.E0,8.E-1,8.E-1);
#77=COLOUR_RGB('',1.E0,8.588235294118E-1,2.196078431373E-1);
#78=DRAUGHTING_PRE_DEFINED_COLOUR('yellow');
#79=COLOUR_RGB('',1.E0,1.E0,3.019607843137E-1);
#80=COLOUR_RGB('',1.E0,1.E0,5.019607843137E-1);
#81=DRAUGHTING_PRE_DEFINED_COLOUR('white');
#83=CARTESIAN_POINT('',(0.E0,0.E0,0.E0));
#84=DIRECTION('',(0.E0,0.E0,1.E0));
#85=DIRECTION('',(1.E0,0.E0,0.E0));
#86=AXIS2_PLACEMENT_3D('',#83,#84,#85);
#88=DRAUGHTING_PRE_DEFINED_CURVE_FONT('continuous');
#89=CURVE_STYLE('',#88,POSITIVE_LENGTH_MEASURE(2.E-2),#10);
#90=PRESENTATION_STYLE_ASSIGNMENT((#89));
#91=STYLED_ITEM('',(#90),#87);
#92=CARTESIAN_POINT('',(0.E0,0.E0,0.E0));
#93=DIRECTION('',(0.E0,0.E0,1.E0));
#94=DIRECTION('',(-1.E0,0.E0,0.E0));
#95=AXIS2_PLACEMENT_3D('',#92,#93,#94);
#97=CURVE_STYLE('',#88,POSITIVE_LENGTH_MEASURE(2.E-2),#10);
#98=PRESENTATION_STYLE_ASSIGNMENT((#97));
#99=STYLED_ITEM('',(#98),#96);
#100=CARTESIAN_POINT('',(0.E0,0.E0,0.E0));
#101=DIRECTION('',(0.E0,0.E0,-1.E0));
#102=DIRECTION('',(1.E0,0.E0,0.E0));
#103=AXIS2_PLACEMENT_3D('',#100,#101,#102);
#105=CURVE_STYLE('',#88,POSITIVE_LENGTH_MEASURE(2.E-2),#10);
#106=PRESENTATION_STYLE_ASSIGNMENT((#105));
#107=STYLED_ITEM('',(#106),#104);
#108=CARTESIAN_POINT('',(0.E0,0.E0,0.E0));
#109=DIRECTION('',(0.E0,0.E0,-1.E0));
#110=DIRECTION('',(-1.E0,0.E0,0.E0));
#111=AXIS2_PLACEMENT_3D('',#108,#109,#110);
#113=CURVE_STYLE('',#88,POSITIVE_LENGTH_MEASURE(2.E-2),#10);
#114=PRESENTATION_STYLE_ASSIGNMENT((#113));
#115=STYLED_ITEM('',(#114),#112);
#116=DIRECTION('',(-1.077031686834E-1,0.E0,9.941830955390E-1));
#117=VECTOR('',#116,6.035105632878E0);
#118=CARTESIAN_POINT('',(5.4E0,0.E0,0.E0));
#119=LINE('',#118,#117);
#120=CURVE_STYLE('',#88,POSITIVE_LENGTH_MEASURE(2.E-2),#10);
#121=PRESENTATION_STYLE_ASSIGNMENT((#120));
#122=STYLED_ITEM('',(#121),#119);
#123=DIRECTION('',(1.077031686834E-1,0.E0,9.941830955390E-1));
#124=VECTOR('',#123,6.035105632878E0);
#125=CARTESIAN_POINT('',(-5.4E0,0.E0,0.E0));
#126=LINE('',#125,#124);
#127=CURVE_STYLE('',#88,POSITIVE_LENGTH_MEASURE(2.E-2),#10);
#128=PRESENTATION_STYLE_ASSIGNMENT((#127));
#129=STYLED_ITEM('',(#128),#126);
#130=CARTESIAN_POINT('',(0.E0,0.E0,6.E0));
#131=DIRECTION('',(0.E0,0.E0,1.E0));
#132=DIRECTION('',(1.E0,0.E0,0.E0));
#133=AXIS2_PLACEMENT_3D('',#130,#131,#132);
#135=CURVE_STYLE('',#88,POSITIVE_LENGTH_MEASURE(2.E-2),#10);
#136=PRESENTATION_STYLE_ASSIGNMENT((#135));
#137=STYLED_ITEM('',(#136),#134);
#138=CARTESIAN_POINT('',(0.E0,0.E0,6.E0));
#139=DIRECTION('',(0.E0,0.E0,1.E0));
#140=DIRECTION('',(-1.E0,0.E0,0.E0));
#141=AXIS2_PLACEMENT_3D('',#138,#139,#140);
#143=CURVE_STYLE('',#88,POSITIVE_LENGTH_MEASURE(2.E-2),#10);
#144=PRESENTATION_STYLE_ASSIGNMENT((#143));
#145=STYLED_ITEM('',(#144),#142);
#146=DIRECTION('',(0.E0,0.E0,-1.E0));
#147=VECTOR('',#146,1.9E0);
#148=CARTESIAN_POINT('',(4.75E0,0.E0,0.E0));
#149=LINE('',#148,#147);
#150=CURVE_STYLE('',#88,POSITIVE_LENGTH_MEASURE(2.E-2),#10);
#151=PRESENTATION_STYLE_ASSIGNMENT((#150));
#152=STYLED_ITEM('',(#151),#149);
#153=DIRECTION('',(0.E0,0.E0,-1.E0));
#154=VECTOR('',#153,1.9E0);
#155=CARTESIAN_POINT('',(-4.75E0,0.E0,0.E0));
#156=LINE('',#155,#154);
#157=CURVE_STYLE('',#88,POSITIVE_LENGTH_MEASURE(2.E-2),#10);
#158=PRESENTATION_STYLE_ASSIGNMENT((#157));
#159=STYLED_ITEM('',(#158),#156);
#160=CARTESIAN_POINT('',(0.E0,0.E0,-1.9E0));
#161=DIRECTION('',(0.E0,0.E0,-1.E0));
#162=DIRECTION('',(1.E0,0.E0,0.E0));
#163=AXIS2_PLACEMENT_3D('',#160,#161,#162);
#165=CURVE_STYLE('',#88,POSITIVE_LENGTH_MEASURE(2.E-2),#10);
#166=PRESENTATION_STYLE_ASSIGNMENT((#165));
#167=STYLED_ITEM('',(#166),#164);
#168=CARTESIAN_POINT('',(0.E0,0.E0,-1.9E0));
#169=DIRECTION('',(0.E0,0.E0,-1.E0));
#170=DIRECTION('',(-1.E0,0.E0,0.E0));
#171=AXIS2_PLACEMENT_3D('',#168,#169,#170);
#173=CURVE_STYLE('',#88,POSITIVE_LENGTH_MEASURE(2.E-2),#10);
#174=PRESENTATION_STYLE_ASSIGNMENT((#173));
#175=STYLED_ITEM('',(#174),#172);
#176=CARTESIAN_POINT('',(0.E0,-2.55E0,-1.9E0));
#177=DIRECTION('',(0.E0,0.E0,-1.E0));
#178=DIRECTION('',(1.E0,0.E0,0.E0));
#179=AXIS2_PLACEMENT_3D('',#176,#177,#178);
#181=CURVE_STYLE('',#88,POSITIVE_LENGTH_MEASURE(2.E-2),#10);
#182=PRESENTATION_STYLE_ASSIGNMENT((#181));
#183=STYLED_ITEM('',(#182),#180);
#184=CARTESIAN_POINT('',(0.E0,-2.55E0,-1.9E0));
#185=DIRECTION('',(0.E0,0.E0,-1.E0));
#186=DIRECTION('',(-1.E0,0.E0,0.E0));
#187=AXIS2_PLACEMENT_3D('',#184,#185,#186);
#189=CURVE_STYLE('',#88,POSITIVE_LENGTH_MEASURE(2.E-2),#10);
#190=PRESENTATION_STYLE_ASSIGNMENT((#189));
#191=STYLED_ITEM('',(#190),#188);
#192=CARTESIAN_POINT('',(0.E0,2.55E0,-1.9E0));
#193=DIRECTION('',(0.E0,0.E0,1.E0));
#194=DIRECTION('',(1.E0,0.E0,0.E0));
#195=AXIS2_PLACEMENT_3D('',#192,#193,#194);
#197=CURVE_STYLE('',#88,POSITIVE_LENGTH_MEASURE(2.E-2),#10);
#198=PRESENTATION_STYLE_ASSIGNMENT((#197));
#199=STYLED_ITEM('',(#198),#196);
#200=CARTESIAN_POINT('',(0.E0,2.55E0,-1.9E0));
#201=DIRECTION('',(0.E0,0.E0,1.E0));
#202=DIRECTION('',(-1.E0,0.E0,0.E0));
#203=AXIS2_PLACEMENT_3D('',#200,#201,#202);
#205=CURVE_STYLE('',#88,POSITIVE_LENGTH_MEASURE(2.E-2),#10);
#206=PRESENTATION_STYLE_ASSIGNMENT((#205));
#207=STYLED_ITEM('',(#206),#204);
#208=DIRECTION('',(0.E0,0.E0,-1.E0));
#209=VECTOR('',#208,5.E0);
#210=CARTESIAN_POINT('',(3.5E-1,-2.55E0,-1.9E0));
#211=LINE('',#210,#209);
#212=CURVE_STYLE('',#88,POSITIVE_LENGTH_MEASURE(2.E-2),#10);
#213=PRESENTATION_STYLE_ASSIGNMENT((#212));
#214=STYLED_ITEM('',(#213),#211);
#215=DIRECTION('',(0.E0,0.E0,-1.E0));
#216=VECTOR('',#215,5.E0);
#217=CARTESIAN_POINT('',(-3.5E-1,-2.55E0,-1.9E0));
#218=LINE('',#217,#216);
#219=CURVE_STYLE('',#88,POSITIVE_LENGTH_MEASURE(2.E-2),#10);
#220=PRESENTATION_STYLE_ASSIGNMENT((#219));
#221=STYLED_ITEM('',(#220),#218);
#222=CARTESIAN_POINT('',(0.E0,-2.55E0,-6.9E0));
#223=DIRECTION('',(0.E0,0.E0,-1.E0));
#224=DIRECTION('',(1.E0,0.E0,0.E0));
#225=AXIS2_PLACEMENT_3D('',#222,#223,#224);
#227=CURVE_STYLE('',#88,POSITIVE_LENGTH_MEASURE(2.E-2),#10);
#228=PRESENTATION_STYLE_ASSIGNMENT((#227));
#229=STYLED_ITEM('',(#228),#226);
#230=CARTESIAN_POINT('',(0.E0,-2.55E0,-6.9E0));
#231=DIRECTION('',(0.E0,0.E0,-1.E0));
#232=DIRECTION('',(-1.E0,0.E0,0.E0));
#233=AXIS2_PLACEMENT_3D('',#230,#231,#232);
#235=CURVE_STYLE('',#88,POSITIVE_LENGTH_MEASURE(2.E-2),#10);
#236=PRESENTATION_STYLE_ASSIGNMENT((#235));
#237=STYLED_ITEM('',(#236),#234);
#238=DIRECTION('',(0.E0,0.E0,-1.E0));
#239=VECTOR('',#238,5.E0);
#240=CARTESIAN_POINT('',(3.5E-1,2.55E0,-1.9E0));
#241=LINE('',#240,#239);
#242=CURVE_STYLE('',#88,POSITIVE_LENGTH_MEASURE(2.E-2),#10);
#243=PRESENTATION_STYLE_ASSIGNMENT((#242));
#244=STYLED_ITEM('',(#243),#241);
#245=DIRECTION('',(0.E0,0.E0,-1.E0));
#246=VECTOR('',#245,5.E0);
#247=CARTESIAN_POINT('',(-3.5E-1,2.55E0,-1.9E0));
#248=LINE('',#247,#246);
#249=CURVE_STYLE('',#88,POSITIVE_LENGTH_MEASURE(2.E-2),#10);
#250=PRESENTATION_STYLE_ASSIGNMENT((#249));
#251=STYLED_ITEM('',(#250),#248);
#252=CARTESIAN_POINT('',(0.E0,2.55E0,-6.9E0));
#253=DIRECTION('',(0.E0,0.E0,1.E0));
#254=DIRECTION('',(1.E0,0.E0,0.E0));
#255=AXIS2_PLACEMENT_3D('',#252,#253,#254);
#257=CURVE_STYLE('',#88,POSITIVE_LENGTH_MEASURE(2.E-2),#10);
#258=PRESENTATION_STYLE_ASSIGNMENT((#257));
#259=STYLED_ITEM('',(#258),#256);
#260=CARTESIAN_POINT('',(0.E0,2.55E0,-6.9E0));
#261=DIRECTION('',(0.E0,0.E0,1.E0));
#262=DIRECTION('',(-1.E0,0.E0,0.E0));
#263=AXIS2_PLACEMENT_3D('',#260,#261,#262);
#265=CURVE_STYLE('',#88,POSITIVE_LENGTH_MEASURE(2.E-2),#10);
#266=PRESENTATION_STYLE_ASSIGNMENT((#265));
#267=STYLED_ITEM('',(#266),#264);
#268=CARTESIAN_POINT('',(5.4E0,0.E0,0.E0));
#269=CARTESIAN_POINT('',(-5.4E0,0.E0,0.E0));
#270=VERTEX_POINT('',#268);
#271=VERTEX_POINT('',#269);
#272=CARTESIAN_POINT('',(4.75E0,0.E0,6.E0));
#273=CARTESIAN_POINT('',(-4.75E0,0.E0,6.E0));
#274=VERTEX_POINT('',#272);
#275=VERTEX_POINT('',#273);
#276=CARTESIAN_POINT('',(4.75E0,0.E0,-1.9E0));
#277=CARTESIAN_POINT('',(-4.75E0,0.E0,-1.9E0));
#278=VERTEX_POINT('',#276);
#279=VERTEX_POINT('',#277);
#280=CARTESIAN_POINT('',(4.75E0,0.E0,0.E0));
#281=CARTESIAN_POINT('',(-4.75E0,0.E0,0.E0));
#282=VERTEX_POINT('',#280);
#283=VERTEX_POINT('',#281);
#284=CARTESIAN_POINT('',(3.5E-1,-2.55E0,-6.9E0));
#285=CARTESIAN_POINT('',(-3.5E-1,-2.55E0,-6.9E0));
#286=VERTEX_POINT('',#284);
#287=VERTEX_POINT('',#285);
#288=CARTESIAN_POINT('',(3.5E-1,-2.55E0,-1.9E0));
#289=CARTESIAN_POINT('',(-3.5E-1,-2.55E0,-1.9E0));
#290=VERTEX_POINT('',#288);
#291=VERTEX_POINT('',#289);
#292=CARTESIAN_POINT('',(3.5E-1,2.55E0,-6.9E0));
#293=CARTESIAN_POINT('',(-3.5E-1,2.55E0,-6.9E0));
#294=VERTEX_POINT('',#292);
#295=VERTEX_POINT('',#293);
#296=CARTESIAN_POINT('',(3.5E-1,2.55E0,-1.9E0));
#297=CARTESIAN_POINT('',(-3.5E-1,2.55E0,-1.9E0));
#298=VERTEX_POINT('',#296);
#299=VERTEX_POINT('',#297);
#300=CARTESIAN_POINT('',(0.E0,0.E0,0.E0));
#301=DIRECTION('',(0.E0,0.E0,1.E0));
#302=DIRECTION('',(1.E0,0.E0,0.E0));
#303=AXIS2_PLACEMENT_3D('',#300,#301,#302);
#304=PLANE('',#303);
#306=ORIENTED_EDGE('',*,*,#305,.T.);
#308=ORIENTED_EDGE('',*,*,#307,.T.);
#309=EDGE_LOOP('',(#306,#308));
#310=FACE_OUTER_BOUND('',#309,.F.);
#312=ORIENTED_EDGE('',*,*,#311,.T.);
#314=ORIENTED_EDGE('',*,*,#313,.T.);
#315=EDGE_LOOP('',(#312,#314));
#316=FACE_BOUND('',#315,.F.);
#317=ADVANCED_FACE('',(#310,#316),#304,.F.);
#318=CARTESIAN_POINT('',(0.E0,0.E0,3.E0));
#319=DIRECTION('',(0.E0,0.E0,-1.E0));
#320=DIRECTION('',(-1.E0,0.E0,0.E0));
#321=AXIS2_PLACEMENT_3D('',#318,#319,#320);
#322=CONICAL_SURFACE('',#321,5.075E0,6.182930165948E0);
#323=ORIENTED_EDGE('',*,*,#305,.F.);
#325=ORIENTED_EDGE('',*,*,#324,.T.);
#327=ORIENTED_EDGE('',*,*,#326,.T.);
#329=ORIENTED_EDGE('',*,*,#328,.F.);
#330=EDGE_LOOP('',(#323,#325,#327,#329));
#331=FACE_OUTER_BOUND('',#330,.F.);
#332=ADVANCED_FACE('',(#331),#322,.T.);
#333=CARTESIAN_POINT('',(0.E0,0.E0,3.E0));
#334=DIRECTION('',(0.E0,0.E0,-1.E0));
#335=DIRECTION('',(1.E0,0.E0,0.E0));
#336=AXIS2_PLACEMENT_3D('',#333,#334,#335);
#337=CONICAL_SURFACE('',#336,5.075E0,6.182930165948E0);
#338=ORIENTED_EDGE('',*,*,#307,.F.);
#339=ORIENTED_EDGE('',*,*,#328,.T.);
#341=ORIENTED_EDGE('',*,*,#340,.T.);
#342=ORIENTED_EDGE('',*,*,#324,.F.);
#343=EDGE_LOOP('',(#338,#339,#341,#342));
#344=FACE_OUTER_BOUND('',#343,.F.);
#345=ADVANCED_FACE('',(#344),#337,.T.);
#346=CARTESIAN_POINT('',(0.E0,0.E0,6.E0));
#347=DIRECTION('',(0.E0,0.E0,1.E0));
#348=DIRECTION('',(1.E0,0.E0,0.E0));
#349=AXIS2_PLACEMENT_3D('',#346,#347,#348);
#350=PLANE('',#349);
#351=ORIENTED_EDGE('',*,*,#326,.F.);
#352=ORIENTED_EDGE('',*,*,#340,.F.);
#353=EDGE_LOOP('',(#351,#352));
#354=FACE_OUTER_BOUND('',#353,.F.);
#355=ADVANCED_FACE('',(#354),#350,.T.);
#356=CARTESIAN_POINT('',(0.E0,0.E0,0.E0));
#357=DIRECTION('',(0.E0,0.E0,-1.E0));
#358=DIRECTION('',(1.E0,0.E0,0.E0));
#359=AXIS2_PLACEMENT_3D('',#356,#357,#358);
#360=CYLINDRICAL_SURFACE('',#359,4.75E0);
#361=ORIENTED_EDGE('',*,*,#311,.F.);
#363=ORIENTED_EDGE('',*,*,#362,.T.);
#365=ORIENTED_EDGE('',*,*,#364,.T.);
#367=ORIENTED_EDGE('',*,*,#366,.F.);
#368=EDGE_LOOP('',(#361,#363,#365,#367));
#369=FACE_OUTER_BOUND('',#368,.F.);
#370=ADVANCED_FACE('',(#369),#360,.T.);
#371=CARTESIAN_POINT('',(0.E0,0.E0,0.E0));
#372=DIRECTION('',(0.E0,0.E0,-1.E0));
#373=DIRECTION('',(1.E0,0.E0,0.E0));
#374=AXIS2_PLACEMENT_3D('',#371,#372,#373);
#375=CYLINDRICAL_SURFACE('',#374,4.75E0);
#376=ORIENTED_EDGE('',*,*,#313,.F.);
#377=ORIENTED_EDGE('',*,*,#366,.T.);
#379=ORIENTED_EDGE('',*,*,#378,.T.);
#380=ORIENTED_EDGE('',*,*,#362,.F.);
#381=EDGE_LOOP('',(#376,#377,#379,#380));
#382=FACE_OUTER_BOUND('',#381,.F.);
#383=ADVANCED_FACE('',(#382),#375,.T.);
#384=CARTESIAN_POINT('',(0.E0,0.E0,-1.9E0));
#385=DIRECTION('',(0.E0,0.E0,-1.E0));
#386=DIRECTION('',(1.E0,0.E0,0.E0));
#387=AXIS2_PLACEMENT_3D('',#384,#385,#386);
#388=PLANE('',#387);
#389=ORIENTED_EDGE('',*,*,#364,.F.);
#390=ORIENTED_EDGE('',*,*,#378,.F.);
#391=EDGE_LOOP('',(#389,#390));
#392=FACE_OUTER_BOUND('',#391,.F.);
#394=ORIENTED_EDGE('',*,*,#393,.T.);
#396=ORIENTED_EDGE('',*,*,#395,.T.);
#397=EDGE_LOOP('',(#394,#396));
#398=FACE_BOUND('',#397,.F.);
#400=ORIENTED_EDGE('',*,*,#399,.F.);
#402=ORIENTED_EDGE('',*,*,#401,.F.);
#403=EDGE_LOOP('',(#400,#402));
#404=FACE_BOUND('',#403,.F.);
#405=ADVANCED_FACE('',(#392,#398,#404),#388,.T.);
#406=CARTESIAN_POINT('',(0.E0,-2.55E0,-1.9E0));
#407=DIRECTION('',(0.E0,0.E0,-1.E0));
#408=DIRECTION('',(1.E0,0.E0,0.E0));
#409=AXIS2_PLACEMENT_3D('',#406,#407,#408);
#410=CYLINDRICAL_SURFACE('',#409,3.5E-1);
#411=ORIENTED_EDGE('',*,*,#393,.F.);
#413=ORIENTED_EDGE('',*,*,#412,.T.);
#415=ORIENTED_EDGE('',*,*,#414,.T.);
#417=ORIENTED_EDGE('',*,*,#416,.F.);
#418=EDGE_LOOP('',(#411,#413,#415,#417));
#419=FACE_OUTER_BOUND('',#418,.F.);
#420=ADVANCED_FACE('',(#419),#410,.T.);
#421=FILL_AREA_STYLE_COLOUR('',#64);
#422=FILL_AREA_STYLE('',(#421));
#423=SURFACE_STYLE_FILL_AREA(#422);
#424=SURFACE_SIDE_STYLE('',(#423));
#425=SURFACE_STYLE_USAGE(.POSITIVE.,#424);
#426=FILL_AREA_STYLE_COLOUR('',#10);
#427=FILL_AREA_STYLE('',(#426));
#428=SURFACE_STYLE_FILL_AREA(#427);
#429=SURFACE_SIDE_STYLE('',(#428));
#430=SURFACE_STYLE_USAGE(.NEGATIVE.,#429);
#431=PRESENTATION_STYLE_ASSIGNMENT((#425,#430));
#432=OVER_RIDING_STYLED_ITEM('',(#431),#420,#82);
#433=CARTESIAN_POINT('',(0.E0,-2.55E0,-1.9E0));
#434=DIRECTION('',(0.E0,0.E0,-1.E0));
#435=DIRECTION('',(1.E0,0.E0,0.E0));
#436=AXIS2_PLACEMENT_3D('',#433,#434,#435);
#437=CYLINDRICAL_SURFACE('',#436,3.5E-1);
#438=ORIENTED_EDGE('',*,*,#395,.F.);
#439=ORIENTED_EDGE('',*,*,#416,.T.);
#441=ORIENTED_EDGE('',*,*,#440,.T.);
#442=ORIENTED_EDGE('',*,*,#412,.F.);
#443=EDGE_LOOP('',(#438,#439,#441,#442));
#444=FACE_OUTER_BOUND('',#443,.F.);
#445=ADVANCED_FACE('',(#444),#437,.T.);
#446=FILL_AREA_STYLE_COLOUR('',#64);
#447=FILL_AREA_STYLE('',(#446));
#448=SURFACE_STYLE_FILL_AREA(#447);
#449=SURFACE_SIDE_STYLE('',(#448));
#450=SURFACE_STYLE_USAGE(.POSITIVE.,#449);
#451=FILL_AREA_STYLE_COLOUR('',#10);
#452=FILL_AREA_STYLE('',(#451));
#453=SURFACE_STYLE_FILL_AREA(#452);
#454=SURFACE_SIDE_STYLE('',(#453));
#455=SURFACE_STYLE_USAGE(.NEGATIVE.,#454);
#456=PRESENTATION_STYLE_ASSIGNMENT((#450,#455));
#457=OVER_RIDING_STYLED_ITEM('',(#456),#445,#82);
#458=CARTESIAN_POINT('',(0.E0,0.E0,-6.9E0));
#459=DIRECTION('',(0.E0,0.E0,-1.E0));
#460=DIRECTION('',(1.E0,0.E0,0.E0));
#461=AXIS2_PLACEMENT_3D('',#458,#459,#460);
#462=PLANE('',#461);
#463=ORIENTED_EDGE('',*,*,#414,.F.);
#464=ORIENTED_EDGE('',*,*,#440,.F.);
#465=EDGE_LOOP('',(#463,#464));
#466=FACE_OUTER_BOUND('',#465,.F.);
#467=ADVANCED_FACE('',(#466),#462,.T.);
#468=FILL_AREA_STYLE_COLOUR('',#64);
#469=FILL_AREA_STYLE('',(#468));
#470=SURFACE_STYLE_FILL_AREA(#469);
#471=SURFACE_SIDE_STYLE('',(#470));
#472=SURFACE_STYLE_USAGE(.POSITIVE.,#471);
#473=FILL_AREA_STYLE_COLOUR('',#10);
#474=FILL_AREA_STYLE('',(#473));
#475=SURFACE_STYLE_FILL_AREA(#474);
#476=SURFACE_SIDE_STYLE('',(#475));
#477=SURFACE_STYLE_USAGE(.NEGATIVE.,#476);
#478=PRESENTATION_STYLE_ASSIGNMENT((#472,#477));
#479=OVER_RIDING_STYLED_ITEM('',(#478),#467,#82);
#480=CARTESIAN_POINT('',(0.E0,2.55E0,-1.9E0));
#481=DIRECTION('',(0.E0,0.E0,1.E0));
#482=DIRECTION('',(1.E0,0.E0,0.E0));
#483=AXIS2_PLACEMENT_3D('',#480,#481,#482);
#484=CYLINDRICAL_SURFACE('',#483,3.5E-1);
#485=ORIENTED_EDGE('',*,*,#399,.T.);
#487=ORIENTED_EDGE('',*,*,#486,.T.);
#489=ORIENTED_EDGE('',*,*,#488,.F.);
#491=ORIENTED_EDGE('',*,*,#490,.F.);
#492=EDGE_LOOP('',(#485,#487,#489,#491));
#493=FACE_OUTER_BOUND('',#492,.F.);
#494=ADVANCED_FACE('',(#493),#484,.T.);
#495=FILL_AREA_STYLE_COLOUR('',#64);
#496=FILL_AREA_STYLE('',(#495));
#497=SURFACE_STYLE_FILL_AREA(#496);
#498=SURFACE_SIDE_STYLE('',(#497));
#499=SURFACE_STYLE_USAGE(.POSITIVE.,#498);
#500=FILL_AREA_STYLE_COLOUR('',#10);
#501=FILL_AREA_STYLE('',(#500));
#502=SURFACE_STYLE_FILL_AREA(#501);
#503=SURFACE_SIDE_STYLE('',(#502));
#504=SURFACE_STYLE_USAGE(.NEGATIVE.,#503);
#505=PRESENTATION_STYLE_ASSIGNMENT((#499,#504));
#506=OVER_RIDING_STYLED_ITEM('',(#505),#494,#82);
#507=CARTESIAN_POINT('',(0.E0,2.55E0,-1.9E0));
#508=DIRECTION('',(0.E0,0.E0,1.E0));
#509=DIRECTION('',(1.E0,0.E0,0.E0));
#510=AXIS2_PLACEMENT_3D('',#507,#508,#509);
#511=CYLINDRICAL_SURFACE('',#510,3.5E-1);
#512=ORIENTED_EDGE('',*,*,#401,.T.);
#513=ORIENTED_EDGE('',*,*,#490,.T.);
#515=ORIENTED_EDGE('',*,*,#514,.F.);
#516=ORIENTED_EDGE('',*,*,#486,.F.);
#517=EDGE_LOOP('',(#512,#513,#515,#516));
#518=FACE_OUTER_BOUND('',#517,.F.);
#519=ADVANCED_FACE('',(#518),#511,.T.);
#520=FILL_AREA_STYLE_COLOUR('',#64);
#521=FILL_AREA_STYLE('',(#520));
#522=SURFACE_STYLE_FILL_AREA(#521);
#523=SURFACE_SIDE_STYLE('',(#522));
#524=SURFACE_STYLE_USAGE(.POSITIVE.,#523);
#525=FILL_AREA_STYLE_COLOUR('',#10);
#526=FILL_AREA_STYLE('',(#525));
#527=SURFACE_STYLE_FILL_AREA(#526);
#528=SURFACE_SIDE_STYLE('',(#527));
#529=SURFACE_STYLE_USAGE(.NEGATIVE.,#528);
#530=PRESENTATION_STYLE_ASSIGNMENT((#524,#529));
#531=OVER_RIDING_STYLED_ITEM('',(#530),#519,#82);
#532=CARTESIAN_POINT('',(0.E0,0.E0,-6.9E0));
#533=DIRECTION('',(0.E0,0.E0,1.E0));
#534=DIRECTION('',(1.E0,0.E0,0.E0));
#535=AXIS2_PLACEMENT_3D('',#532,#533,#534);
#536=PLANE('',#535);
#537=ORIENTED_EDGE('',*,*,#488,.T.);
#538=ORIENTED_EDGE('',*,*,#514,.T.);
#539=EDGE_LOOP('',(#537,#538));
#540=FACE_OUTER_BOUND('',#539,.F.);
#541=ADVANCED_FACE('',(#540),#536,.F.);
#542=FILL_AREA_STYLE_COLOUR('',#64);
#543=FILL_AREA_STYLE('',(#542));
#544=SURFACE_STYLE_FILL_AREA(#543);
#545=SURFACE_SIDE_STYLE('',(#544));
#546=SURFACE_STYLE_USAGE(.POSITIVE.,#545);
#547=FILL_AREA_STYLE_COLOUR('',#10);
#548=FILL_AREA_STYLE('',(#547));
#549=SURFACE_STYLE_FILL_AREA(#548);
#550=SURFACE_SIDE_STYLE('',(#549));
#551=SURFACE_STYLE_USAGE(.NEGATIVE.,#550);
#552=PRESENTATION_STYLE_ASSIGNMENT((#546,#551));
#553=OVER_RIDING_STYLED_ITEM('',(#552),#541,#82);
#554=CLOSED_SHELL('',(#317,#332,#345,#355,#370,#383,#405,#420,#445,#467,#494,
#519,#541));
#555=MANIFOLD_SOLID_BREP('',#554);
#556=FILL_AREA_STYLE_COLOUR('',#10);
#557=FILL_AREA_STYLE('',(#556));
#558=SURFACE_STYLE_FILL_AREA(#557);
#559=SURFACE_SIDE_STYLE('',(#558));
#560=SURFACE_STYLE_USAGE(.BOTH.,#559);
#561=PRESENTATION_STYLE_ASSIGNMENT((#560));
#82=STYLED_ITEM('',(#561),#555);
#562=(LENGTH_UNIT()NAMED_UNIT(*)SI_UNIT(.MILLI.,.METRE.));
#563=DIMENSIONAL_EXPONENTS(0.E0,0.E0,0.E0,0.E0,0.E0,0.E0,0.E0);
#564=(NAMED_UNIT(*)PLANE_ANGLE_UNIT()SI_UNIT($,.RADIAN.));
#565=PLANE_ANGLE_MEASURE_WITH_UNIT(PLANE_ANGLE_MEASURE(1.745329251994E-2),#564);
#566=(CONVERSION_BASED_UNIT('DEGREE',#565)NAMED_UNIT(#563)PLANE_ANGLE_UNIT());
#567=(NAMED_UNIT(*)SI_UNIT($,.STERADIAN.)SOLID_ANGLE_UNIT());
#568=UNCERTAINTY_MEASURE_WITH_UNIT(LENGTH_MEASURE(1.999144880792E-3),#562,
'closure',
'Maximum model space distance between geometric entities at asserted connectivities');
#569=(GEOMETRIC_REPRESENTATION_CONTEXT(3)GLOBAL_UNCERTAINTY_ASSIGNED_CONTEXT((
#568))GLOBAL_UNIT_ASSIGNED_CONTEXT((#562,#566,#567))REPRESENTATION_CONTEXT
('ID1','3'));
#571=MECHANICAL_DESIGN_GEOMETRIC_PRESENTATION_REPRESENTATION('',(#91,#99,#107,
#115,#122,#129,#137,#145,#152,#159,#167,#175,#183,#191,#199,#207,#214,#221,#229,
#237,#244,#251,#259,#267,#432,#457,#479,#506,#531,#553,#82),#569);
#572=APPLICATION_CONTEXT(
'CONFIGURATION CONTROLLED 3D DESIGNS OF MECHANICAL PARTS AND ASSEMBLIES');
#573=APPLICATION_PROTOCOL_DEFINITION('international standard',
'config_control_design',1994,#572);
#574=DESIGN_CONTEXT('',#572,'design');
#575=MECHANICAL_CONTEXT('',#572,'mechanical');
#576=PRODUCT('PRT0002','PRT0002','NOT SPECIFIED',(#575));
#577=PRODUCT_DEFINITION_FORMATION_WITH_SPECIFIED_SOURCE('1','LAST_VERSION',#576,
.MADE.);
#581=PRODUCT_CATEGORY('part','');
#582=PRODUCT_RELATED_PRODUCT_CATEGORY('detail','',(#576));
#583=PRODUCT_CATEGORY_RELATIONSHIP('','',#581,#582);
#584=SECURITY_CLASSIFICATION_LEVEL('unclassified');
#585=SECURITY_CLASSIFICATION('','',#584);
#586=CC_DESIGN_SECURITY_CLASSIFICATION(#585,(#577));
#587=APPROVAL_STATUS('approved');
#588=APPROVAL(#587,'');
#589=CC_DESIGN_APPROVAL(#588,(#585,#577,#578));
#590=CALENDAR_DATE(112,7,2);
#591=COORDINATED_UNIVERSAL_TIME_OFFSET(1,0,.AHEAD.);
#592=LOCAL_TIME(14,7,8.E0,#591);
#593=DATE_AND_TIME(#590,#592);
#594=APPROVAL_DATE_TIME(#593,#588);
#595=DATE_TIME_ROLE('creation_date');
#596=CC_DESIGN_DATE_AND_TIME_ASSIGNMENT(#593,#595,(#578));
#597=DATE_TIME_ROLE('classification_date');
#598=CC_DESIGN_DATE_AND_TIME_ASSIGNMENT(#593,#597,(#585));
#599=PERSON('UNSPECIFIED','UNSPECIFIED',$,$,$,$);
#600=ORGANIZATION('UNSPECIFIED','UNSPECIFIED','UNSPECIFIED');
#601=PERSON_AND_ORGANIZATION(#599,#600);
#602=APPROVAL_ROLE('approver');
#603=APPROVAL_PERSON_ORGANIZATION(#601,#588,#602);
#604=PERSON_AND_ORGANIZATION_ROLE('creator');
#605=CC_DESIGN_PERSON_AND_ORGANIZATION_ASSIGNMENT(#601,#604,(#577,#578));
#606=PERSON_AND_ORGANIZATION_ROLE('design_supplier');
#607=CC_DESIGN_PERSON_AND_ORGANIZATION_ASSIGNMENT(#601,#606,(#577));
#608=PERSON_AND_ORGANIZATION_ROLE('classification_officer');
#609=CC_DESIGN_PERSON_AND_ORGANIZATION_ASSIGNMENT(#601,#608,(#585));
#610=PERSON_AND_ORGANIZATION_ROLE('design_owner');
#611=CC_DESIGN_PERSON_AND_ORGANIZATION_ASSIGNMENT(#601,#610,(#576));
#87=CIRCLE('',#86,5.4E0);
#96=CIRCLE('',#95,5.4E0);
#104=CIRCLE('',#103,4.75E0);
#112=CIRCLE('',#111,4.75E0);
#134=CIRCLE('',#133,4.75E0);
#142=CIRCLE('',#141,4.75E0);
#164=CIRCLE('',#163,4.75E0);
#172=CIRCLE('',#171,4.75E0);
#180=CIRCLE('',#179,3.5E-1);
#188=CIRCLE('',#187,3.5E-1);
#196=CIRCLE('',#195,3.5E-1);
#204=CIRCLE('',#203,3.5E-1);
#226=CIRCLE('',#225,3.5E-1);
#234=CIRCLE('',#233,3.5E-1);
#256=CIRCLE('',#255,3.5E-1);
#264=CIRCLE('',#263,3.5E-1);
#305=EDGE_CURVE('',#270,#271,#87,.T.);
#307=EDGE_CURVE('',#271,#270,#96,.T.);
#311=EDGE_CURVE('',#282,#283,#104,.T.);
#313=EDGE_CURVE('',#283,#282,#112,.T.);
#324=EDGE_CURVE('',#270,#274,#119,.T.);
#326=EDGE_CURVE('',#274,#275,#134,.T.);
#328=EDGE_CURVE('',#271,#275,#126,.T.);
#340=EDGE_CURVE('',#275,#274,#142,.T.);
#362=EDGE_CURVE('',#282,#278,#149,.T.);
#364=EDGE_CURVE('',#278,#279,#164,.T.);
#366=EDGE_CURVE('',#283,#279,#156,.T.);
#378=EDGE_CURVE('',#279,#278,#172,.T.);
#393=EDGE_CURVE('',#290,#291,#180,.T.);
#395=EDGE_CURVE('',#291,#290,#188,.T.);
#399=EDGE_CURVE('',#298,#299,#196,.T.);
#401=EDGE_CURVE('',#299,#298,#204,.T.);
#412=EDGE_CURVE('',#290,#286,#211,.T.);
#414=EDGE_CURVE('',#286,#287,#226,.T.);
#416=EDGE_CURVE('',#291,#287,#218,.T.);
#440=EDGE_CURVE('',#287,#286,#234,.T.);
#486=EDGE_CURVE('',#299,#295,#248,.T.);
#488=EDGE_CURVE('',#294,#295,#256,.T.);
#490=EDGE_CURVE('',#298,#294,#241,.T.);
#514=EDGE_CURVE('',#295,#294,#264,.T.);
#570=ADVANCED_BREP_SHAPE_REPRESENTATION('',(#555),#569);
#578=PRODUCT_DEFINITION('design','',#577,#574);
#579=PRODUCT_DEFINITION_SHAPE('','SHAPE FOR PRT0002.',#578);
#580=SHAPE_DEFINITION_REPRESENTATION(#579,#570);
ENDSEC;
END-ISO-10303-21;
