ISO-10303-21;
HEADER;
FILE_DESCRIPTION((''),'2;1');
FILE_NAME('CAD1529','2012-02-09T',('dhelisch'),(''),
'PRO/ENGINEER BY PARAMETRIC TECHNOLOGY CORPORATION, 2007250',
'PRO/ENGINEER BY PARAMETRIC TECHNOLOGY CORPORATION, 2007250','');
FILE_SCHEMA(('CONFIG_CONTROL_DESIGN'));
ENDSEC;
DATA;
#1=DRAUGHTING_PRE_DEFINED_COLOUR('black');
#2=COLOUR_RGB('',0.E0,0.E0,1.96E-1);
#3=COLOUR_RGB('',0.E0,0.E0,3.14E-1);
#4=COLOUR_RGB('',0.E0,0.E0,6.E-1);
#5=COLOUR_RGB('',0.E0,0.E0,8.E-1);
#6=COLOUR_RGB('',0.E0,1.96E-1,0.E0);
#7=COLOUR_RGB('',0.E0,3.14E-1,0.E0);
#8=COLOUR_RGB('',0.E0,6.E-1,0.E0);
#9=COLOUR_RGB('',0.E0,6.E-1,4.E-1);
#10=COLOUR_RGB('',0.E0,8.E-1,0.E0);
#11=DRAUGHTING_PRE_DEFINED_COLOUR('green');
#12=COLOUR_RGB('',6.666666666667E-2,7.568627450980E-1,3.294117647059E-1);
#13=COLOUR_RGB('',7.8E-2,7.8E-2,7.8E-2);
#14=COLOUR_RGB('',1.18E-1,1.18E-1,4.71E-1);
#15=COLOUR_RGB('',1.57E-1,1.57E-1,1.57E-1);
#16=COLOUR_RGB('',1.96E-1,0.E0,0.E0);
#17=COLOUR_RGB('',1.96E-1,0.E0,1.96E-1);
#18=COLOUR_RGB('',1.96E-1,5.88E-1,1.96E-1);
#19=COLOUR_RGB('',2.E-1,2.E-1,0.E0);
#20=COLOUR_RGB('',2.E-1,2.E-1,1.E0);
#21=COLOUR_RGB('',2.E-1,1.E0,2.E-1);
#22=COLOUR_RGB('',2.35E-1,2.35E-1,2.35E-1);
#23=COLOUR_RGB('',2.35E-1,2.35E-1,5.88E-1);
#24=COLOUR_RGB('',2.941176470588E-1,6.627450980392E-1,5.098039215686E-1);
#25=COLOUR_RGB('',3.098039215686E-1,5.215686274510E-1,1.411764705882E-1);
#26=COLOUR_RGB('',3.098039215686E-1,1.E0,1.E0);
#27=COLOUR_RGB('',3.14E-1,3.14E-1,3.14E-1);
#28=COLOUR_RGB('',3.27543E-1,1.E0,6.33116E-1);
#29=COLOUR_RGB('',3.92E-1,0.E0,0.E0);
#30=COLOUR_RGB('',3.92E-1,0.E0,3.92E-1);
#31=COLOUR_RGB('',3.92E-1,3.92E-1,3.92E-1);
#32=COLOUR_RGB('',3.92E-1,3.92E-1,8.63E-1);
#33=COLOUR_RGB('',3.92E-1,5.88E-1,3.92E-1);
#34=COLOUR_RGB('',3.92E-1,5.88E-1,8.63E-1);
#35=COLOUR_RGB('',4.E-1,4.E-1,0.E0);
#36=COLOUR_RGB('',4.E-1,4.E-1,1.E0);
#37=COLOUR_RGB('',4.E-1,1.E0,4.E-1);
#38=COLOUR_RGB('',4.235294117647E-1,3.176470588235E-1,1.960784313725E-1);
#39=COLOUR_RGB('',4.392156862745E-1,6.274509803922E-1,9.882352941176E-1);
#40=COLOUR_RGB('',5.019607843137E-1,2.509803921569E-1,2.509803921569E-1);
#41=COLOUR_RGB('',5.01961E-1,1.E0,5.01961E-1);
#42=COLOUR_RGB('',5.137254901961E-1,5.137254901961E-1,5.137254901961E-1);
#43=COLOUR_RGB('',5.5E-1,5.6E-1,7.E-1);
#44=COLOUR_RGB('',5.490196078431E-1,8.E-1,7.882352941176E-1);
#45=COLOUR_RGB('',5.88E-1,5.88E-1,5.88E-1);
#46=COLOUR_RGB('',5.88E-1,7.84E-1,5.88E-1);
#47=COLOUR_RGB('',6.E-1,0.E0,0.E0);
#48=COLOUR_RGB('',6.E-1,6.E-1,0.E0);
#49=COLOUR_RGB('',6.E-1,6.E-1,1.E0);
#50=COLOUR_RGB('',6.E-1,1.E0,6.E-1);
#51=COLOUR_RGB('',6.2E-1,3.1E-1,6.5E-1);
#52=COLOUR_RGB('',6.666666666667E-1,5.058823529412E-1,2.156862745098E-1);
#53=COLOUR_RGB('',6.784313725490E-1,5.333333333333E-1,9.411764705882E-2);
#54=COLOUR_RGB('',6.784313725490E-1,7.686274509804E-1,8.117647058824E-1);
#55=COLOUR_RGB('',6.8E-1,8.5E-1,1.E0);
#56=COLOUR_RGB('',6.823529411765E-1,5.098039215686E-1,3.176470588235E-1);
#57=COLOUR_RGB('',7.019607843137E-1,7.019607843137E-1,7.019607843137E-1);
#58=COLOUR_RGB('',7.019607843137E-1,1.E0,1.E0);
#59=COLOUR_RGB('',7.803921568627E-1,9.254901960784E-1,4.352941176471E-1);
#60=COLOUR_RGB('',8.E-1,0.E0,0.E0);
#61=COLOUR_RGB('',8.E-1,8.E-1,1.E0);
#62=COLOUR_RGB('',8.E-1,9.215686274510E-1,0.E0);
#63=COLOUR_RGB('',8.E-1,1.E0,8.E-1);
#64=COLOUR_RGB('',8.235294117647E-1,6.156862745098E-1,3.843137254902E-1);
#65=COLOUR_RGB('',8.470588235294E-1,8.392156862745E-1,8.392156862745E-1);
#66=COLOUR_RGB('',8.784E-1,9.49E-1,1.E0);
#67=COLOUR_RGB('',9.019607843137E-1,4.117647058824E-1,4.117647058824E-1);
#68=COLOUR_RGB('',9.8E-1,3.92E-1,0.E0);
#69=COLOUR_RGB('',9.8E-1,5.88E-1,0.E0);
#70=COLOUR_RGB('',9.8E-1,7.84E-1,0.E0);
#71=DRAUGHTING_PRE_DEFINED_COLOUR('red');
#72=COLOUR_RGB('',1.E0,2.E-1,2.E-1);
#73=COLOUR_RGB('',1.E0,3.7E-1,3.8E-1);
#74=COLOUR_RGB('',1.E0,6.E-1,6.E-1);
#75=COLOUR_RGB('',1.E0,8.E-1,8.E-1);
#76=DRAUGHTING_PRE_DEFINED_COLOUR('yellow');
#77=COLOUR_RGB('',1.E0,1.E0,3.019607843137E-1);
#78=COLOUR_RGB('',1.E0,1.E0,5.019607843137E-1);
#79=DRAUGHTING_PRE_DEFINED_COLOUR('white');
#81=CARTESIAN_POINT('',(0.E0,0.E0,0.E0));
#82=DIRECTION('',(0.E0,0.E0,1.E0));
#83=DIRECTION('',(1.E0,0.E0,0.E0));
#84=AXIS2_PLACEMENT_3D('',#81,#82,#83);
#86=DRAUGHTING_PRE_DEFINED_CURVE_FONT('continuous');
#87=CURVE_STYLE('',#86,POSITIVE_LENGTH_MEASURE(2.E-2),#9);
#88=PRESENTATION_STYLE_ASSIGNMENT((#87));
#89=STYLED_ITEM('',(#88),#85);
#90=CARTESIAN_POINT('',(0.E0,0.E0,0.E0));
#91=DIRECTION('',(0.E0,0.E0,1.E0));
#92=DIRECTION('',(-1.E0,0.E0,0.E0));
#93=AXIS2_PLACEMENT_3D('',#90,#91,#92);
#95=CURVE_STYLE('',#86,POSITIVE_LENGTH_MEASURE(2.E-2),#9);
#96=PRESENTATION_STYLE_ASSIGNMENT((#95));
#97=STYLED_ITEM('',(#96),#94);
#98=CARTESIAN_POINT('',(0.E0,0.E0,3.8E1));
#99=DIRECTION('',(0.E0,0.E0,-1.E0));
#100=DIRECTION('',(-1.E0,0.E0,0.E0));
#101=AXIS2_PLACEMENT_3D('',#98,#99,#100);
#103=CURVE_STYLE('',#86,POSITIVE_LENGTH_MEASURE(2.E-2),#9);
#104=PRESENTATION_STYLE_ASSIGNMENT((#103));
#105=STYLED_ITEM('',(#104),#102);
#106=DIRECTION('',(0.E0,0.E0,1.E0));
#107=VECTOR('',#106,3.8E1);
#108=CARTESIAN_POINT('',(2.E1,0.E0,0.E0));
#109=LINE('',#108,#107);
#110=CURVE_STYLE('',#86,POSITIVE_LENGTH_MEASURE(2.E-2),#9);
#111=PRESENTATION_STYLE_ASSIGNMENT((#110));
#112=STYLED_ITEM('',(#111),#109);
#113=DIRECTION('',(-8.786245095725E-1,0.E0,4.775133204199E-1));
#114=VECTOR('',#113,1.047091209017E1);
#115=CARTESIAN_POINT('',(2.E1,0.E0,3.8E1));
#116=LINE('',#115,#114);
#117=CURVE_STYLE('',#86,POSITIVE_LENGTH_MEASURE(2.E-2),#9);
#118=PRESENTATION_STYLE_ASSIGNMENT((#117));
#119=STYLED_ITEM('',(#118),#116);
#120=DIRECTION('',(8.786245095725E-1,0.E0,4.775133204199E-1));
#121=VECTOR('',#120,1.047091209017E1);
#122=CARTESIAN_POINT('',(-2.E1,0.E0,3.8E1));
#123=LINE('',#122,#121);
#124=CURVE_STYLE('',#86,POSITIVE_LENGTH_MEASURE(2.E-2),#9);
#125=PRESENTATION_STYLE_ASSIGNMENT((#124));
#126=STYLED_ITEM('',(#125),#123);
#127=CARTESIAN_POINT('',(0.E0,0.E0,3.8E1));
#128=DIRECTION('',(0.E0,0.E0,-1.E0));
#129=DIRECTION('',(1.E0,0.E0,0.E0));
#130=AXIS2_PLACEMENT_3D('',#127,#128,#129);
#132=CURVE_STYLE('',#86,POSITIVE_LENGTH_MEASURE(2.E-2),#9);
#133=PRESENTATION_STYLE_ASSIGNMENT((#132));
#134=STYLED_ITEM('',(#133),#131);
#135=DIRECTION('',(0.E0,0.E0,1.E0));
#136=VECTOR('',#135,3.8E1);
#137=CARTESIAN_POINT('',(-2.E1,0.E0,0.E0));
#138=LINE('',#137,#136);
#139=CURVE_STYLE('',#86,POSITIVE_LENGTH_MEASURE(2.E-2),#9);
#140=PRESENTATION_STYLE_ASSIGNMENT((#139));
#141=STYLED_ITEM('',(#140),#138);
#142=CARTESIAN_POINT('',(0.E0,0.E0,4.3E1));
#143=DIRECTION('',(0.E0,0.E0,1.E0));
#144=DIRECTION('',(1.E0,0.E0,0.E0));
#145=AXIS2_PLACEMENT_3D('',#142,#143,#144);
#147=CURVE_STYLE('',#86,POSITIVE_LENGTH_MEASURE(2.E-2),#9);
#148=PRESENTATION_STYLE_ASSIGNMENT((#147));
#149=STYLED_ITEM('',(#148),#146);
#150=CARTESIAN_POINT('',(0.E0,0.E0,4.3E1));
#151=DIRECTION('',(0.E0,0.E0,1.E0));
#152=DIRECTION('',(-1.E0,0.E0,0.E0));
#153=AXIS2_PLACEMENT_3D('',#150,#151,#152);
#155=CURVE_STYLE('',#86,POSITIVE_LENGTH_MEASURE(2.E-2),#9);
#156=PRESENTATION_STYLE_ASSIGNMENT((#155));
#157=STYLED_ITEM('',(#156),#154);
#158=CARTESIAN_POINT('',(0.E0,0.E0,4.3E1));
#159=DIRECTION('',(0.E0,0.E0,1.E0));
#160=DIRECTION('',(1.E0,0.E0,0.E0));
#161=AXIS2_PLACEMENT_3D('',#158,#159,#160);
#163=CURVE_STYLE('',#86,POSITIVE_LENGTH_MEASURE(2.E-2),#9);
#164=PRESENTATION_STYLE_ASSIGNMENT((#163));
#165=STYLED_ITEM('',(#164),#162);
#166=CARTESIAN_POINT('',(0.E0,0.E0,4.3E1));
#167=DIRECTION('',(0.E0,0.E0,1.E0));
#168=DIRECTION('',(-1.E0,0.E0,0.E0));
#169=AXIS2_PLACEMENT_3D('',#166,#167,#168);
#171=CURVE_STYLE('',#86,POSITIVE_LENGTH_MEASURE(2.E-2),#9);
#172=PRESENTATION_STYLE_ASSIGNMENT((#171));
#173=STYLED_ITEM('',(#172),#170);
#174=DIRECTION('',(0.E0,0.E0,-1.E0));
#175=VECTOR('',#174,1.E0);
#176=CARTESIAN_POINT('',(7.125E0,0.E0,4.3E1));
#177=LINE('',#176,#175);
#178=CURVE_STYLE('',#86,POSITIVE_LENGTH_MEASURE(2.E-2),#9);
#179=PRESENTATION_STYLE_ASSIGNMENT((#178));
#180=STYLED_ITEM('',(#179),#177);
#181=DIRECTION('',(0.E0,0.E0,-1.E0));
#182=VECTOR('',#181,1.E0);
#183=CARTESIAN_POINT('',(-7.125E0,0.E0,4.3E1));
#184=LINE('',#183,#182);
#185=CURVE_STYLE('',#86,POSITIVE_LENGTH_MEASURE(2.E-2),#9);
#186=PRESENTATION_STYLE_ASSIGNMENT((#185));
#187=STYLED_ITEM('',(#186),#184);
#188=CARTESIAN_POINT('',(0.E0,0.E0,4.2E1));
#189=DIRECTION('',(0.E0,0.E0,1.E0));
#190=DIRECTION('',(1.E0,0.E0,0.E0));
#191=AXIS2_PLACEMENT_3D('',#188,#189,#190);
#193=CURVE_STYLE('',#86,POSITIVE_LENGTH_MEASURE(2.E-2),#9);
#194=PRESENTATION_STYLE_ASSIGNMENT((#193));
#195=STYLED_ITEM('',(#194),#192);
#196=CARTESIAN_POINT('',(0.E0,0.E0,4.2E1));
#197=DIRECTION('',(0.E0,0.E0,1.E0));
#198=DIRECTION('',(-1.E0,0.E0,0.E0));
#199=AXIS2_PLACEMENT_3D('',#196,#197,#198);
#201=CURVE_STYLE('',#86,POSITIVE_LENGTH_MEASURE(2.E-2),#9);
#202=PRESENTATION_STYLE_ASSIGNMENT((#201));
#203=STYLED_ITEM('',(#202),#200);
#204=CARTESIAN_POINT('',(2.E1,0.E0,0.E0));
#205=CARTESIAN_POINT('',(-2.E1,0.E0,0.E0));
#206=VERTEX_POINT('',#204);
#207=VERTEX_POINT('',#205);
#208=CARTESIAN_POINT('',(1.08E1,0.E0,4.3E1));
#209=CARTESIAN_POINT('',(-1.08E1,0.E0,4.3E1));
#210=VERTEX_POINT('',#208);
#211=VERTEX_POINT('',#209);
#212=CARTESIAN_POINT('',(-2.E1,0.E0,3.8E1));
#213=CARTESIAN_POINT('',(2.E1,0.E0,3.8E1));
#214=VERTEX_POINT('',#212);
#215=VERTEX_POINT('',#213);
#216=CARTESIAN_POINT('',(7.125E0,0.E0,4.2E1));
#217=CARTESIAN_POINT('',(-7.125E0,0.E0,4.2E1));
#218=VERTEX_POINT('',#216);
#219=VERTEX_POINT('',#217);
#220=CARTESIAN_POINT('',(7.125E0,0.E0,4.3E1));
#221=CARTESIAN_POINT('',(-7.125E0,0.E0,4.3E1));
#222=VERTEX_POINT('',#220);
#223=VERTEX_POINT('',#221);
#224=CARTESIAN_POINT('',(0.E0,0.E0,0.E0));
#225=DIRECTION('',(0.E0,0.E0,1.E0));
#226=DIRECTION('',(1.E0,0.E0,0.E0));
#227=AXIS2_PLACEMENT_3D('',#224,#225,#226);
#228=PLANE('',#227);
#230=ORIENTED_EDGE('',*,*,#229,.T.);
#232=ORIENTED_EDGE('',*,*,#231,.T.);
#233=EDGE_LOOP('',(#230,#232));
#234=FACE_OUTER_BOUND('',#233,.F.);
#235=ADVANCED_FACE('',(#234),#228,.F.);
#236=CARTESIAN_POINT('',(0.E0,0.E0,0.E0));
#237=DIRECTION('',(0.E0,0.E0,1.E0));
#238=DIRECTION('',(1.E0,0.E0,0.E0));
#239=AXIS2_PLACEMENT_3D('',#236,#237,#238);
#240=CYLINDRICAL_SURFACE('',#239,2.E1);
#242=ORIENTED_EDGE('',*,*,#241,.F.);
#244=ORIENTED_EDGE('',*,*,#243,.F.);
#245=ORIENTED_EDGE('',*,*,#229,.F.);
#247=ORIENTED_EDGE('',*,*,#246,.T.);
#248=EDGE_LOOP('',(#242,#244,#245,#247));
#249=FACE_OUTER_BOUND('',#248,.F.);
#250=ADVANCED_FACE('',(#249),#240,.T.);
#251=CARTESIAN_POINT('',(0.E0,0.E0,4.05E1));
#252=DIRECTION('',(0.E0,0.E0,-1.E0));
#253=DIRECTION('',(-1.E0,0.E0,0.E0));
#254=AXIS2_PLACEMENT_3D('',#251,#252,#253);
#255=CONICAL_SURFACE('',#254,1.54E1,6.147688139369E1);
#256=ORIENTED_EDGE('',*,*,#241,.T.);
#258=ORIENTED_EDGE('',*,*,#257,.T.);
#260=ORIENTED_EDGE('',*,*,#259,.T.);
#262=ORIENTED_EDGE('',*,*,#261,.F.);
#263=EDGE_LOOP('',(#256,#258,#260,#262));
#264=FACE_OUTER_BOUND('',#263,.F.);
#265=ADVANCED_FACE('',(#264),#255,.T.);
#266=CARTESIAN_POINT('',(0.E0,0.E0,4.05E1));
#267=DIRECTION('',(0.E0,0.E0,-1.E0));
#268=DIRECTION('',(1.E0,0.E0,0.E0));
#269=AXIS2_PLACEMENT_3D('',#266,#267,#268);
#270=CONICAL_SURFACE('',#269,1.54E1,6.147688139369E1);
#272=ORIENTED_EDGE('',*,*,#271,.T.);
#273=ORIENTED_EDGE('',*,*,#261,.T.);
#275=ORIENTED_EDGE('',*,*,#274,.T.);
#276=ORIENTED_EDGE('',*,*,#257,.F.);
#277=EDGE_LOOP('',(#272,#273,#275,#276));
#278=FACE_OUTER_BOUND('',#277,.F.);
#279=ADVANCED_FACE('',(#278),#270,.T.);
#280=CARTESIAN_POINT('',(0.E0,0.E0,0.E0));
#281=DIRECTION('',(0.E0,0.E0,1.E0));
#282=DIRECTION('',(1.E0,0.E0,0.E0));
#283=AXIS2_PLACEMENT_3D('',#280,#281,#282);
#284=CYLINDRICAL_SURFACE('',#283,2.E1);
#285=ORIENTED_EDGE('',*,*,#271,.F.);
#286=ORIENTED_EDGE('',*,*,#246,.F.);
#287=ORIENTED_EDGE('',*,*,#231,.F.);
#288=ORIENTED_EDGE('',*,*,#243,.T.);
#289=EDGE_LOOP('',(#285,#286,#287,#288));
#290=FACE_OUTER_BOUND('',#289,.F.);
#291=ADVANCED_FACE('',(#290),#284,.T.);
#292=CARTESIAN_POINT('',(0.E0,0.E0,4.3E1));
#293=DIRECTION('',(0.E0,0.E0,1.E0));
#294=DIRECTION('',(1.E0,0.E0,0.E0));
#295=AXIS2_PLACEMENT_3D('',#292,#293,#294);
#296=PLANE('',#295);
#297=ORIENTED_EDGE('',*,*,#259,.F.);
#298=ORIENTED_EDGE('',*,*,#274,.F.);
#299=EDGE_LOOP('',(#297,#298));
#300=FACE_OUTER_BOUND('',#299,.F.);
#302=ORIENTED_EDGE('',*,*,#301,.T.);
#304=ORIENTED_EDGE('',*,*,#303,.T.);
#305=EDGE_LOOP('',(#302,#304));
#306=FACE_BOUND('',#305,.F.);
#307=ADVANCED_FACE('',(#300,#306),#296,.T.);
#308=CARTESIAN_POINT('',(0.E0,0.E0,4.3E1));
#309=DIRECTION('',(0.E0,0.E0,1.E0));
#310=DIRECTION('',(1.E0,0.E0,0.E0));
#311=AXIS2_PLACEMENT_3D('',#308,#309,#310);
#312=CYLINDRICAL_SURFACE('',#311,7.125E0);
#313=ORIENTED_EDGE('',*,*,#301,.F.);
#315=ORIENTED_EDGE('',*,*,#314,.T.);
#317=ORIENTED_EDGE('',*,*,#316,.T.);
#319=ORIENTED_EDGE('',*,*,#318,.F.);
#320=EDGE_LOOP('',(#313,#315,#317,#319));
#321=FACE_OUTER_BOUND('',#320,.F.);
#322=ADVANCED_FACE('',(#321),#312,.F.);
#323=CARTESIAN_POINT('',(0.E0,0.E0,4.3E1));
#324=DIRECTION('',(0.E0,0.E0,1.E0));
#325=DIRECTION('',(1.E0,0.E0,0.E0));
#326=AXIS2_PLACEMENT_3D('',#323,#324,#325);
#327=CYLINDRICAL_SURFACE('',#326,7.125E0);
#328=ORIENTED_EDGE('',*,*,#303,.F.);
#329=ORIENTED_EDGE('',*,*,#318,.T.);
#331=ORIENTED_EDGE('',*,*,#330,.T.);
#332=ORIENTED_EDGE('',*,*,#314,.F.);
#333=EDGE_LOOP('',(#328,#329,#331,#332));
#334=FACE_OUTER_BOUND('',#333,.F.);
#335=ADVANCED_FACE('',(#334),#327,.F.);
#336=CARTESIAN_POINT('',(0.E0,0.E0,4.2E1));
#337=DIRECTION('',(0.E0,0.E0,1.E0));
#338=DIRECTION('',(1.E0,0.E0,0.E0));
#339=AXIS2_PLACEMENT_3D('',#336,#337,#338);
#340=PLANE('',#339);
#341=ORIENTED_EDGE('',*,*,#316,.F.);
#342=ORIENTED_EDGE('',*,*,#330,.F.);
#343=EDGE_LOOP('',(#341,#342));
#344=FACE_OUTER_BOUND('',#343,.F.);
#345=ADVANCED_FACE('',(#344),#340,.T.);
#346=FILL_AREA_STYLE_COLOUR('',#13);
#347=FILL_AREA_STYLE('',(#346));
#348=SURFACE_STYLE_FILL_AREA(#347);
#349=SURFACE_SIDE_STYLE('',(#348));
#350=SURFACE_STYLE_USAGE(.POSITIVE.,#349);
#351=FILL_AREA_STYLE_COLOUR('',#9);
#352=FILL_AREA_STYLE('',(#351));
#353=SURFACE_STYLE_FILL_AREA(#352);
#354=SURFACE_SIDE_STYLE('',(#353));
#355=SURFACE_STYLE_USAGE(.NEGATIVE.,#354);
#356=PRESENTATION_STYLE_ASSIGNMENT((#350,#355));
#357=OVER_RIDING_STYLED_ITEM('',(#356),#345,#80);
#358=CLOSED_SHELL('',(#235,#250,#265,#279,#291,#307,#322,#335,#345));
#359=MANIFOLD_SOLID_BREP('',#358);
#360=FILL_AREA_STYLE_COLOUR('',#9);
#361=FILL_AREA_STYLE('',(#360));
#362=SURFACE_STYLE_FILL_AREA(#361);
#363=SURFACE_SIDE_STYLE('',(#362));
#364=SURFACE_STYLE_USAGE(.BOTH.,#363);
#365=PRESENTATION_STYLE_ASSIGNMENT((#364));
#80=STYLED_ITEM('',(#365),#359);
#366=(LENGTH_UNIT()NAMED_UNIT(*)SI_UNIT(.MILLI.,.METRE.));
#367=DIMENSIONAL_EXPONENTS(0.E0,0.E0,0.E0,0.E0,0.E0,0.E0,0.E0);
#368=(NAMED_UNIT(*)PLANE_ANGLE_UNIT()SI_UNIT($,.RADIAN.));
#369=PLANE_ANGLE_MEASURE_WITH_UNIT(PLANE_ANGLE_MEASURE(1.745329251994E-2),#368);
#370=(CONVERSION_BASED_UNIT('DEGREE',#369)NAMED_UNIT(#367)PLANE_ANGLE_UNIT());
#371=(NAMED_UNIT(*)SI_UNIT($,.STERADIAN.)SOLID_ANGLE_UNIT());
#372=UNCERTAINTY_MEASURE_WITH_UNIT(LENGTH_MEASURE(7.105347344133E-3),#366,
'closure',
'Maximum model space distance between geometric entities at asserted connectivities');
#373=(GEOMETRIC_REPRESENTATION_CONTEXT(3)GLOBAL_UNCERTAINTY_ASSIGNED_CONTEXT((
#372))GLOBAL_UNIT_ASSIGNED_CONTEXT((#366,#370,#371))REPRESENTATION_CONTEXT
('ID1','3'));
#375=MECHANICAL_DESIGN_GEOMETRIC_PRESENTATION_REPRESENTATION('',(#89,#97,#105,
#112,#119,#126,#134,#141,#149,#157,#165,#173,#180,#187,#195,#203,#357,#80),
#373);
#376=APPLICATION_CONTEXT(
'CONFIGURATION CONTROLLED 3D DESIGNS OF MECHANICAL PARTS AND ASSEMBLIES');
#377=APPLICATION_PROTOCOL_DEFINITION('international standard',
'config_control_design',1994,#376);
#378=DESIGN_CONTEXT('',#376,'design');
#379=MECHANICAL_CONTEXT('',#376,'mechanical');
#380=PRODUCT('CAD1529','CAD1529','NOT SPECIFIED',(#379));
#381=PRODUCT_DEFINITION_FORMATION_WITH_SPECIFIED_SOURCE('2','LAST_VERSION',#380,
.MADE.);
#385=PRODUCT_CATEGORY('part','');
#386=PRODUCT_RELATED_PRODUCT_CATEGORY('detail','',(#380));
#387=PRODUCT_CATEGORY_RELATIONSHIP('','',#385,#386);
#388=SECURITY_CLASSIFICATION_LEVEL('unclassified');
#389=SECURITY_CLASSIFICATION('','',#388);
#390=CC_DESIGN_SECURITY_CLASSIFICATION(#389,(#381));
#391=APPROVAL_STATUS('approved');
#392=APPROVAL(#391,'');
#393=CC_DESIGN_APPROVAL(#392,(#389,#381,#382));
#394=CALENDAR_DATE(112,9,2);
#395=COORDINATED_UNIVERSAL_TIME_OFFSET(1,0,.AHEAD.);
#396=LOCAL_TIME(13,26,6.E0,#395);
#397=DATE_AND_TIME(#394,#396);
#398=APPROVAL_DATE_TIME(#397,#392);
#399=DATE_TIME_ROLE('creation_date');
#400=CC_DESIGN_DATE_AND_TIME_ASSIGNMENT(#397,#399,(#382));
#401=DATE_TIME_ROLE('classification_date');
#402=CC_DESIGN_DATE_AND_TIME_ASSIGNMENT(#397,#401,(#389));
#403=PERSON('UNSPECIFIED','UNSPECIFIED',$,$,$,$);
#404=ORGANIZATION('UNSPECIFIED','UNSPECIFIED','UNSPECIFIED');
#405=PERSON_AND_ORGANIZATION(#403,#404);
#406=APPROVAL_ROLE('approver');
#407=APPROVAL_PERSON_ORGANIZATION(#405,#392,#406);
#408=PERSON_AND_ORGANIZATION_ROLE('creator');
#409=CC_DESIGN_PERSON_AND_ORGANIZATION_ASSIGNMENT(#405,#408,(#381,#382));
#410=PERSON_AND_ORGANIZATION_ROLE('design_supplier');
#411=CC_DESIGN_PERSON_AND_ORGANIZATION_ASSIGNMENT(#405,#410,(#381));
#412=PERSON_AND_ORGANIZATION_ROLE('classification_officer');
#413=CC_DESIGN_PERSON_AND_ORGANIZATION_ASSIGNMENT(#405,#412,(#389));
#414=PERSON_AND_ORGANIZATION_ROLE('design_owner');
#415=CC_DESIGN_PERSON_AND_ORGANIZATION_ASSIGNMENT(#405,#414,(#380));
#85=CIRCLE('',#84,2.E1);
#94=CIRCLE('',#93,2.E1);
#102=CIRCLE('',#101,2.E1);
#131=CIRCLE('',#130,2.E1);
#146=CIRCLE('',#145,1.08E1);
#154=CIRCLE('',#153,1.08E1);
#162=CIRCLE('',#161,7.125E0);
#170=CIRCLE('',#169,7.125E0);
#192=CIRCLE('',#191,7.125E0);
#200=CIRCLE('',#199,7.125E0);
#229=EDGE_CURVE('',#206,#207,#85,.T.);
#231=EDGE_CURVE('',#207,#206,#94,.T.);
#241=EDGE_CURVE('',#214,#215,#102,.T.);
#243=EDGE_CURVE('',#207,#214,#138,.T.);
#246=EDGE_CURVE('',#206,#215,#109,.T.);
#257=EDGE_CURVE('',#215,#210,#116,.T.);
#259=EDGE_CURVE('',#210,#211,#146,.T.);
#261=EDGE_CURVE('',#214,#211,#123,.T.);
#271=EDGE_CURVE('',#215,#214,#131,.T.);
#274=EDGE_CURVE('',#211,#210,#154,.T.);
#301=EDGE_CURVE('',#222,#223,#162,.T.);
#303=EDGE_CURVE('',#223,#222,#170,.T.);
#314=EDGE_CURVE('',#222,#218,#177,.T.);
#316=EDGE_CURVE('',#218,#219,#192,.T.);
#318=EDGE_CURVE('',#223,#219,#184,.T.);
#330=EDGE_CURVE('',#219,#218,#200,.T.);
#374=ADVANCED_BREP_SHAPE_REPRESENTATION('',(#359),#373);
#382=PRODUCT_DEFINITION('design','',#381,#378);
#383=PRODUCT_DEFINITION_SHAPE('','SHAPE FOR CAD1529.',#382);
#384=SHAPE_DEFINITION_REPRESENTATION(#383,#374);
ENDSEC;
END-ISO-10303-21;
