ISO-10303-21;
HEADER;
FILE_DESCRIPTION((''),'2;1');
FILE_NAME('PRT0001','2012-02-14T',('dhelisch'),(''),
'PRO/ENGINEER BY PARAMETRIC TECHNOLOGY CORPORATION, 2007250',
'PRO/ENGINEER BY PARAMETRIC TECHNOLOGY CORPORATION, 2007250','');
FILE_SCHEMA(('CONFIG_CONTROL_DESIGN'));
ENDSEC;
DATA;
#1=COLOUR_RGB('',0.E0,0.E0,1.96E-1);
#2=COLOUR_RGB('',0.E0,0.E0,3.14E-1);
#3=COLOUR_RGB('',0.E0,0.E0,6.E-1);
#4=COLOUR_RGB('',0.E0,0.E0,8.E-1);
#5=COLOUR_RGB('',0.E0,1.96E-1,0.E0);
#6=COLOUR_RGB('',0.E0,3.14E-1,0.E0);
#7=COLOUR_RGB('',0.E0,6.E-1,0.E0);
#8=COLOUR_RGB('',0.E0,6.E-1,4.E-1);
#9=COLOUR_RGB('',0.E0,8.E-1,0.E0);
#10=COLOUR_RGB('',7.8E-2,7.8E-2,7.8E-2);
#11=COLOUR_RGB('',1.18E-1,1.18E-1,4.71E-1);
#12=COLOUR_RGB('',1.57E-1,1.57E-1,1.57E-1);
#13=COLOUR_RGB('',1.96E-1,0.E0,0.E0);
#14=COLOUR_RGB('',1.96E-1,0.E0,1.96E-1);
#15=COLOUR_RGB('',1.96E-1,5.88E-1,1.96E-1);
#16=COLOUR_RGB('',2.E-1,2.E-1,0.E0);
#17=COLOUR_RGB('',2.E-1,2.E-1,1.E0);
#18=COLOUR_RGB('',2.E-1,1.E0,2.E-1);
#19=COLOUR_RGB('',2.35E-1,2.35E-1,2.35E-1);
#20=COLOUR_RGB('',2.35E-1,2.35E-1,5.88E-1);
#21=COLOUR_RGB('',3.09804E-1,5.21569E-1,1.41176E-1);
#22=COLOUR_RGB('',3.09804E-1,1.E0,1.E0);
#23=COLOUR_RGB('',3.14E-1,3.14E-1,3.14E-1);
#24=COLOUR_RGB('',3.27543E-1,1.E0,6.33116E-1);
#25=COLOUR_RGB('',3.92E-1,0.E0,0.E0);
#26=COLOUR_RGB('',3.92E-1,0.E0,3.92E-1);
#27=COLOUR_RGB('',3.92E-1,3.92E-1,3.92E-1);
#28=COLOUR_RGB('',3.92E-1,3.92E-1,8.63E-1);
#29=COLOUR_RGB('',3.92E-1,5.88E-1,3.92E-1);
#30=COLOUR_RGB('',3.92E-1,5.88E-1,8.63E-1);
#31=COLOUR_RGB('',4.E-1,4.E-1,0.E0);
#32=COLOUR_RGB('',4.E-1,4.E-1,1.E0);
#33=COLOUR_RGB('',4.E-1,1.E0,4.E-1);
#34=COLOUR_RGB('',4.23529E-1,3.17647E-1,1.96078E-1);
#35=COLOUR_RGB('',5.01961E-1,1.E0,5.01961E-1);
#36=COLOUR_RGB('',5.13725E-1,5.13725E-1,5.13725E-1);
#37=COLOUR_RGB('',5.5E-1,5.6E-1,7.E-1);
#38=COLOUR_RGB('',5.88E-1,5.88E-1,5.88E-1);
#39=COLOUR_RGB('',5.88E-1,7.84E-1,5.88E-1);
#40=COLOUR_RGB('',6.E-1,0.E0,0.E0);
#41=COLOUR_RGB('',6.E-1,6.E-1,0.E0);
#42=COLOUR_RGB('',6.E-1,6.E-1,1.E0);
#43=COLOUR_RGB('',6.E-1,1.E0,6.E-1);
#44=COLOUR_RGB('',6.2E-1,3.1E-1,6.5E-1);
#45=COLOUR_RGB('',6.66667E-1,5.05882E-1,2.15686E-1);
#46=COLOUR_RGB('',6.8E-1,8.5E-1,1.E0);
#47=COLOUR_RGB('',6.82353E-1,5.09804E-1,3.17647E-1);
#48=COLOUR_RGB('',7.01961E-1,7.01961E-1,7.01961E-1);
#49=COLOUR_RGB('',7.01961E-1,1.E0,1.E0);
#50=COLOUR_RGB('',8.E-1,0.E0,0.E0);
#51=COLOUR_RGB('',8.E-1,8.E-1,1.E0);
#52=COLOUR_RGB('',8.E-1,9.21569E-1,0.E0);
#53=COLOUR_RGB('',8.E-1,1.E0,8.E-1);
#54=COLOUR_RGB('',8.23529E-1,6.15686E-1,3.84314E-1);
#55=COLOUR_RGB('',8.784E-1,9.49E-1,1.E0);
#56=COLOUR_RGB('',9.01961E-1,4.11765E-1,4.11765E-1);
#57=COLOUR_RGB('',9.8E-1,3.92E-1,0.E0);
#58=COLOUR_RGB('',9.8E-1,5.88E-1,0.E0);
#59=COLOUR_RGB('',9.8E-1,7.84E-1,0.E0);
#60=COLOUR_RGB('',1.E0,2.E-1,2.E-1);
#61=COLOUR_RGB('',1.E0,3.7E-1,3.8E-1);
#62=COLOUR_RGB('',1.E0,6.E-1,6.E-1);
#63=COLOUR_RGB('',1.E0,8.E-1,8.E-1);
#64=COLOUR_RGB('',1.E0,1.E0,3.01961E-1);
#65=COLOUR_RGB('',1.E0,1.E0,5.01961E-1);
#66=DRAUGHTING_PRE_DEFINED_COLOUR('white');
#67=CARTESIAN_POINT('',(0.E0,0.E0,3.056443986793E-13));
#68=DIRECTION('',(0.E0,0.E0,-1.E0));
#69=DIRECTION('',(-1.E0,0.E0,0.E0));
#70=AXIS2_PLACEMENT_3D('',#67,#68,#69);
#72=CARTESIAN_POINT('',(0.E0,0.E0,3.056443986793E-13));
#73=DIRECTION('',(0.E0,0.E0,-1.E0));
#74=DIRECTION('',(1.E0,0.E0,0.E0));
#75=AXIS2_PLACEMENT_3D('',#72,#73,#74);
#77=CARTESIAN_POINT('',(0.E0,0.E0,0.E0));
#78=DIRECTION('',(0.E0,0.E0,-1.E0));
#79=DIRECTION('',(1.E0,0.E0,0.E0));
#80=AXIS2_PLACEMENT_3D('',#77,#78,#79);
#82=CARTESIAN_POINT('',(0.E0,0.E0,0.E0));
#83=DIRECTION('',(0.E0,0.E0,-1.E0));
#84=DIRECTION('',(-1.E0,0.E0,0.E0));
#85=AXIS2_PLACEMENT_3D('',#82,#83,#84);
#87=CARTESIAN_POINT('',(-1.4E0,0.E0,1.E-1));
#88=DIRECTION('',(0.E0,1.E0,0.E0));
#89=DIRECTION('',(5.773159728051E-14,0.E0,-1.E0));
#90=AXIS2_PLACEMENT_3D('',#87,#88,#89);
#92=CARTESIAN_POINT('',(1.4E0,0.E0,1.E-1));
#93=DIRECTION('',(0.E0,-1.E0,0.E0));
#94=DIRECTION('',(-5.329070518201E-14,0.E0,-1.E0));
#95=AXIS2_PLACEMENT_3D('',#92,#93,#94);
#97=CARTESIAN_POINT('',(0.E0,0.E0,2.19E1));
#98=DIRECTION('',(0.E0,0.E0,1.E0));
#99=DIRECTION('',(-1.E0,0.E0,0.E0));
#100=AXIS2_PLACEMENT_3D('',#97,#98,#99);
#102=CARTESIAN_POINT('',(0.E0,0.E0,1.E-1));
#103=DIRECTION('',(0.E0,0.E0,-1.E0));
#104=DIRECTION('',(1.E0,0.E0,0.E0));
#105=AXIS2_PLACEMENT_3D('',#102,#103,#104);
#107=DIRECTION('',(0.E0,2.377550166810E-11,1.E0));
#108=VECTOR('',#107,2.18E1);
#109=CARTESIAN_POINT('',(-1.5E0,-3.898024161347E-10,1.E-1));
#110=LINE('',#109,#108);
#111=CARTESIAN_POINT('',(-1.4E0,0.E0,2.19E1));
#112=DIRECTION('',(0.E0,-1.E0,0.E0));
#113=DIRECTION('',(1.110223024625E-14,0.E0,1.E0));
#114=AXIS2_PLACEMENT_3D('',#111,#112,#113);
#116=CARTESIAN_POINT('',(0.E0,0.E0,2.2E1));
#117=DIRECTION('',(0.E0,0.E0,1.E0));
#118=DIRECTION('',(1.E0,0.E0,0.E0));
#119=AXIS2_PLACEMENT_3D('',#116,#117,#118);
#121=CARTESIAN_POINT('',(0.E0,0.E0,2.2E1));
#122=DIRECTION('',(0.E0,0.E0,1.E0));
#123=DIRECTION('',(-1.E0,0.E0,0.E0));
#124=AXIS2_PLACEMENT_3D('',#121,#122,#123);
#126=CARTESIAN_POINT('',(1.4E0,0.E0,2.19E1));
#127=DIRECTION('',(0.E0,1.E0,0.E0));
#128=DIRECTION('',(-1.110223024625E-14,0.E0,1.E0));
#129=AXIS2_PLACEMENT_3D('',#126,#127,#128);
#131=CARTESIAN_POINT('',(0.E0,0.E0,2.19E1));
#132=DIRECTION('',(0.E0,0.E0,1.E0));
#133=DIRECTION('',(1.E0,0.E0,0.E0));
#134=AXIS2_PLACEMENT_3D('',#131,#132,#133);
#136=CARTESIAN_POINT('',(0.E0,0.E0,1.E-1));
#137=DIRECTION('',(0.E0,0.E0,-1.E0));
#138=DIRECTION('',(-1.E0,0.E0,0.E0));
#139=AXIS2_PLACEMENT_3D('',#136,#137,#138);
#141=DIRECTION('',(0.E0,-2.377549577958E-11,1.E0));
#142=VECTOR('',#141,2.18E1);
#143=CARTESIAN_POINT('',(1.5E0,3.898023511300E-10,1.E-1));
#144=LINE('',#143,#142);
#145=DIRECTION('',(0.E0,0.E0,-1.E0));
#146=VECTOR('',#145,1.E1);
#147=CARTESIAN_POINT('',(1.E0,0.E0,0.E0));
#148=LINE('',#147,#146);
#149=DIRECTION('',(0.E0,0.E0,-1.E0));
#150=VECTOR('',#149,1.E1);
#151=CARTESIAN_POINT('',(-1.E0,0.E0,0.E0));
#152=LINE('',#151,#150);
#153=CARTESIAN_POINT('',(0.E0,0.E0,-1.E1));
#154=DIRECTION('',(0.E0,0.E0,-1.E0));
#155=DIRECTION('',(1.E0,0.E0,0.E0));
#156=AXIS2_PLACEMENT_3D('',#153,#154,#155);
#158=CARTESIAN_POINT('',(0.E0,0.E0,-1.E1));
#159=DIRECTION('',(0.E0,0.E0,-1.E0));
#160=DIRECTION('',(-1.E0,0.E0,0.E0));
#161=AXIS2_PLACEMENT_3D('',#158,#159,#160);
#163=CARTESIAN_POINT('',(1.399999752758E0,0.E0,2.2E1));
#164=CARTESIAN_POINT('',(-1.399999752758E0,0.E0,2.2E1));
#165=VERTEX_POINT('',#163);
#166=VERTEX_POINT('',#164);
#167=CARTESIAN_POINT('',(1.5E0,0.E0,2.19E1));
#168=CARTESIAN_POINT('',(-1.5E0,0.E0,2.19E1));
#169=VERTEX_POINT('',#167);
#170=VERTEX_POINT('',#168);
#171=CARTESIAN_POINT('',(1.5E0,3.898023511300E-10,1.E-1));
#172=VERTEX_POINT('',#171);
#173=CARTESIAN_POINT('',(-1.5E0,-3.898024161347E-10,1.E-1));
#174=VERTEX_POINT('',#173);
#175=CARTESIAN_POINT('',(-1.399999752759E0,0.E0,3.056443986793E-13));
#176=CARTESIAN_POINT('',(1.399999752759E0,0.E0,3.056443986793E-13));
#177=VERTEX_POINT('',#175);
#178=VERTEX_POINT('',#176);
#179=CARTESIAN_POINT('',(1.E0,0.E0,-1.E1));
#180=CARTESIAN_POINT('',(-1.E0,0.E0,-1.E1));
#181=VERTEX_POINT('',#179);
#182=VERTEX_POINT('',#180);
#183=CARTESIAN_POINT('',(1.E0,0.E0,0.E0));
#184=CARTESIAN_POINT('',(-1.E0,0.E0,0.E0));
#185=VERTEX_POINT('',#183);
#186=VERTEX_POINT('',#184);
#187=CARTESIAN_POINT('',(0.E0,0.E0,0.E0));
#188=DIRECTION('',(0.E0,0.E0,1.E0));
#189=DIRECTION('',(1.E0,0.E0,0.E0));
#190=AXIS2_PLACEMENT_3D('',#187,#188,#189);
#191=PLANE('',#190);
#193=ORIENTED_EDGE('',*,*,#192,.F.);
#195=ORIENTED_EDGE('',*,*,#194,.F.);
#196=EDGE_LOOP('',(#193,#195));
#197=FACE_OUTER_BOUND('',#196,.F.);
#199=ORIENTED_EDGE('',*,*,#198,.T.);
#201=ORIENTED_EDGE('',*,*,#200,.T.);
#202=EDGE_LOOP('',(#199,#201));
#203=FACE_BOUND('',#202,.F.);
#204=ADVANCED_FACE('',(#197,#203),#191,.F.);
#205=CARTESIAN_POINT('',(0.E0,0.E0,1.E-1));
#206=DIRECTION('',(0.E0,0.E0,1.E0));
#207=DIRECTION('',(-9.994678104232E-1,-3.262048325748E-2,0.E0));
#208=AXIS2_PLACEMENT_3D('',#205,#206,#207);
#209=TOROIDAL_SURFACE('',#208,1.4E0,1.E-1);
#210=ORIENTED_EDGE('',*,*,#192,.T.);
#212=ORIENTED_EDGE('',*,*,#211,.T.);
#214=ORIENTED_EDGE('',*,*,#213,.F.);
#216=ORIENTED_EDGE('',*,*,#215,.F.);
#217=EDGE_LOOP('',(#210,#212,#214,#216));
#218=FACE_OUTER_BOUND('',#217,.F.);
#219=ADVANCED_FACE('',(#218),#209,.T.);
#220=CARTESIAN_POINT('',(0.E0,0.E0,1.E-1));
#221=DIRECTION('',(0.E0,0.E0,1.E0));
#222=DIRECTION('',(9.994678104232E-1,3.262048325748E-2,0.E0));
#223=AXIS2_PLACEMENT_3D('',#220,#221,#222);
#224=TOROIDAL_SURFACE('',#223,1.4E0,1.E-1);
#225=ORIENTED_EDGE('',*,*,#194,.T.);
#226=ORIENTED_EDGE('',*,*,#215,.T.);
#228=ORIENTED_EDGE('',*,*,#227,.F.);
#229=ORIENTED_EDGE('',*,*,#211,.F.);
#230=EDGE_LOOP('',(#225,#226,#228,#229));
#231=FACE_OUTER_BOUND('',#230,.F.);
#232=ADVANCED_FACE('',(#231),#224,.T.);
#233=CARTESIAN_POINT('',(0.E0,0.E0,0.E0));
#234=DIRECTION('',(0.E0,0.E0,1.E0));
#235=DIRECTION('',(1.E0,0.E0,0.E0));
#236=AXIS2_PLACEMENT_3D('',#233,#234,#235);
#237=CYLINDRICAL_SURFACE('',#236,1.5E0);
#239=ORIENTED_EDGE('',*,*,#238,.T.);
#241=ORIENTED_EDGE('',*,*,#240,.F.);
#242=ORIENTED_EDGE('',*,*,#227,.T.);
#244=ORIENTED_EDGE('',*,*,#243,.T.);
#245=EDGE_LOOP('',(#239,#241,#242,#244));
#246=FACE_OUTER_BOUND('',#245,.F.);
#247=ADVANCED_FACE('',(#246),#237,.T.);
#248=CARTESIAN_POINT('',(0.E0,0.E0,2.19E1));
#249=DIRECTION('',(0.E0,0.E0,1.E0));
#250=DIRECTION('',(-9.997362640700E-1,2.296524119783E-2,0.E0));
#251=AXIS2_PLACEMENT_3D('',#248,#249,#250);
#252=TOROIDAL_SURFACE('',#251,1.4E0,1.E-1);
#254=ORIENTED_EDGE('',*,*,#253,.T.);
#256=ORIENTED_EDGE('',*,*,#255,.T.);
#257=ORIENTED_EDGE('',*,*,#238,.F.);
#259=ORIENTED_EDGE('',*,*,#258,.F.);
#260=EDGE_LOOP('',(#254,#256,#257,#259));
#261=FACE_OUTER_BOUND('',#260,.F.);
#262=ADVANCED_FACE('',(#261),#252,.T.);
#263=CARTESIAN_POINT('',(0.E0,0.E0,2.2E1));
#264=DIRECTION('',(0.E0,0.E0,1.E0));
#265=DIRECTION('',(1.E0,0.E0,0.E0));
#266=AXIS2_PLACEMENT_3D('',#263,#264,#265);
#267=PLANE('',#266);
#269=ORIENTED_EDGE('',*,*,#268,.F.);
#270=ORIENTED_EDGE('',*,*,#253,.F.);
#271=EDGE_LOOP('',(#269,#270));
#272=FACE_OUTER_BOUND('',#271,.F.);
#273=ADVANCED_FACE('',(#272),#267,.T.);
#274=FILL_AREA_STYLE_COLOUR('',#8);
#275=FILL_AREA_STYLE('',(#274));
#276=SURFACE_STYLE_FILL_AREA(#275);
#277=SURFACE_SIDE_STYLE('',(#276));
#278=SURFACE_STYLE_USAGE(.POSITIVE.,#277);
#279=PRESENTATION_STYLE_ASSIGNMENT((#278));
#280=STYLED_ITEM('',(#279),#273);
#281=CARTESIAN_POINT('',(0.E0,0.E0,2.19E1));
#282=DIRECTION('',(0.E0,0.E0,1.E0));
#283=DIRECTION('',(9.997362640700E-1,-2.296524119783E-2,0.E0));
#284=AXIS2_PLACEMENT_3D('',#281,#282,#283);
#285=TOROIDAL_SURFACE('',#284,1.4E0,1.E-1);
#286=ORIENTED_EDGE('',*,*,#268,.T.);
#287=ORIENTED_EDGE('',*,*,#258,.T.);
#289=ORIENTED_EDGE('',*,*,#288,.F.);
#290=ORIENTED_EDGE('',*,*,#255,.F.);
#291=EDGE_LOOP('',(#286,#287,#289,#290));
#292=FACE_OUTER_BOUND('',#291,.F.);
#293=ADVANCED_FACE('',(#292),#285,.T.);
#294=CARTESIAN_POINT('',(0.E0,0.E0,0.E0));
#295=DIRECTION('',(0.E0,0.E0,1.E0));
#296=DIRECTION('',(1.E0,0.E0,0.E0));
#297=AXIS2_PLACEMENT_3D('',#294,#295,#296);
#298=CYLINDRICAL_SURFACE('',#297,1.5E0);
#299=ORIENTED_EDGE('',*,*,#288,.T.);
#300=ORIENTED_EDGE('',*,*,#243,.F.);
#301=ORIENTED_EDGE('',*,*,#213,.T.);
#302=ORIENTED_EDGE('',*,*,#240,.T.);
#303=EDGE_LOOP('',(#299,#300,#301,#302));
#304=FACE_OUTER_BOUND('',#303,.F.);
#305=ADVANCED_FACE('',(#304),#298,.T.);
#306=CARTESIAN_POINT('',(0.E0,0.E0,0.E0));
#307=DIRECTION('',(0.E0,0.E0,-1.E0));
#308=DIRECTION('',(1.E0,0.E0,0.E0));
#309=AXIS2_PLACEMENT_3D('',#306,#307,#308);
#310=CYLINDRICAL_SURFACE('',#309,1.E0);
#311=ORIENTED_EDGE('',*,*,#198,.F.);
#313=ORIENTED_EDGE('',*,*,#312,.T.);
#315=ORIENTED_EDGE('',*,*,#314,.T.);
#317=ORIENTED_EDGE('',*,*,#316,.F.);
#318=EDGE_LOOP('',(#311,#313,#315,#317));
#319=FACE_OUTER_BOUND('',#318,.F.);
#320=ADVANCED_FACE('',(#319),#310,.T.);
#321=CARTESIAN_POINT('',(0.E0,0.E0,0.E0));
#322=DIRECTION('',(0.E0,0.E0,-1.E0));
#323=DIRECTION('',(1.E0,0.E0,0.E0));
#324=AXIS2_PLACEMENT_3D('',#321,#322,#323);
#325=CYLINDRICAL_SURFACE('',#324,1.E0);
#326=ORIENTED_EDGE('',*,*,#200,.F.);
#327=ORIENTED_EDGE('',*,*,#316,.T.);
#329=ORIENTED_EDGE('',*,*,#328,.T.);
#330=ORIENTED_EDGE('',*,*,#312,.F.);
#331=EDGE_LOOP('',(#326,#327,#329,#330));
#332=FACE_OUTER_BOUND('',#331,.F.);
#333=ADVANCED_FACE('',(#332),#325,.T.);
#334=CARTESIAN_POINT('',(0.E0,0.E0,-1.E1));
#335=DIRECTION('',(0.E0,0.E0,-1.E0));
#336=DIRECTION('',(1.E0,0.E0,0.E0));
#337=AXIS2_PLACEMENT_3D('',#334,#335,#336);
#338=PLANE('',#337);
#339=ORIENTED_EDGE('',*,*,#314,.F.);
#340=ORIENTED_EDGE('',*,*,#328,.F.);
#341=EDGE_LOOP('',(#339,#340));
#342=FACE_OUTER_BOUND('',#341,.F.);
#343=ADVANCED_FACE('',(#342),#338,.T.);
#344=CLOSED_SHELL('',(#204,#219,#232,#247,#262,#273,#293,#305,#320,#333,#343));
#345=MANIFOLD_SOLID_BREP('',#344);
#346=(LENGTH_UNIT()NAMED_UNIT(*)SI_UNIT(.MILLI.,.METRE.));
#347=DIMENSIONAL_EXPONENTS(0.E0,0.E0,0.E0,0.E0,0.E0,0.E0,0.E0);
#348=(NAMED_UNIT(*)PLANE_ANGLE_UNIT()SI_UNIT($,.RADIAN.));
#349=PLANE_ANGLE_MEASURE_WITH_UNIT(PLANE_ANGLE_MEASURE(1.745329251994E-2),#348);
#350=(CONVERSION_BASED_UNIT('DEGREE',#349)NAMED_UNIT(#347)PLANE_ANGLE_UNIT());
#351=(NAMED_UNIT(*)SI_UNIT($,.STERADIAN.)SOLID_ANGLE_UNIT());
#352=UNCERTAINTY_MEASURE_WITH_UNIT(LENGTH_MEASURE(3.227873358215E-3),#346,
'closure',
'Maximum model space distance between geometric entities at asserted connectivities');
#353=(GEOMETRIC_REPRESENTATION_CONTEXT(3)GLOBAL_UNCERTAINTY_ASSIGNED_CONTEXT((
#352))GLOBAL_UNIT_ASSIGNED_CONTEXT((#346,#350,#351))REPRESENTATION_CONTEXT
('ID1','3'));
#355=MECHANICAL_DESIGN_GEOMETRIC_PRESENTATION_REPRESENTATION('',(#280),#353);
#356=APPLICATION_CONTEXT(
'CONFIGURATION CONTROLLED 3D DESIGNS OF MECHANICAL PARTS AND ASSEMBLIES');
#357=APPLICATION_PROTOCOL_DEFINITION('international standard',
'config_control_design',1994,#356);
#358=DESIGN_CONTEXT('',#356,'design');
#359=MECHANICAL_CONTEXT('',#356,'mechanical');
#360=PRODUCT('PRT0001','PRT0001','NOT SPECIFIED',(#359));
#361=PRODUCT_DEFINITION_FORMATION_WITH_SPECIFIED_SOURCE('1','LAST_VERSION',#360,
.MADE.);
#365=PRODUCT_CATEGORY('part','');
#366=PRODUCT_RELATED_PRODUCT_CATEGORY('detail','',(#360));
#367=PRODUCT_CATEGORY_RELATIONSHIP('','',#365,#366);
#368=SECURITY_CLASSIFICATION_LEVEL('unclassified');
#369=SECURITY_CLASSIFICATION('','',#368);
#370=CC_DESIGN_SECURITY_CLASSIFICATION(#369,(#361));
#371=APPROVAL_STATUS('approved');
#372=APPROVAL(#371,'');
#373=CC_DESIGN_APPROVAL(#372,(#369,#361,#362));
#374=CALENDAR_DATE(112,14,2);
#375=COORDINATED_UNIVERSAL_TIME_OFFSET(1,0,.AHEAD.);
#376=LOCAL_TIME(7,56,3.6E1,#375);
#377=DATE_AND_TIME(#374,#376);
#378=APPROVAL_DATE_TIME(#377,#372);
#379=DATE_TIME_ROLE('creation_date');
#380=CC_DESIGN_DATE_AND_TIME_ASSIGNMENT(#377,#379,(#362));
#381=DATE_TIME_ROLE('classification_date');
#382=CC_DESIGN_DATE_AND_TIME_ASSIGNMENT(#377,#381,(#369));
#383=PERSON('UNSPECIFIED','UNSPECIFIED',$,$,$,$);
#384=ORGANIZATION('UNSPECIFIED','UNSPECIFIED','UNSPECIFIED');
#385=PERSON_AND_ORGANIZATION(#383,#384);
#386=APPROVAL_ROLE('approver');
#387=APPROVAL_PERSON_ORGANIZATION(#385,#372,#386);
#388=PERSON_AND_ORGANIZATION_ROLE('creator');
#389=CC_DESIGN_PERSON_AND_ORGANIZATION_ASSIGNMENT(#385,#388,(#361,#362));
#390=PERSON_AND_ORGANIZATION_ROLE('design_supplier');
#391=CC_DESIGN_PERSON_AND_ORGANIZATION_ASSIGNMENT(#385,#390,(#361));
#392=PERSON_AND_ORGANIZATION_ROLE('classification_officer');
#393=CC_DESIGN_PERSON_AND_ORGANIZATION_ASSIGNMENT(#385,#392,(#369));
#394=PERSON_AND_ORGANIZATION_ROLE('design_owner');
#395=CC_DESIGN_PERSON_AND_ORGANIZATION_ASSIGNMENT(#385,#394,(#360));
#71=CIRCLE('',#70,1.399999752759E0);
#76=CIRCLE('',#75,1.399999752759E0);
#81=CIRCLE('',#80,1.E0);
#86=CIRCLE('',#85,1.E0);
#91=CIRCLE('',#90,1.E-1);
#96=CIRCLE('',#95,1.E-1);
#101=CIRCLE('',#100,1.5E0);
#106=CIRCLE('',#105,1.5E0);
#115=CIRCLE('',#114,1.E-1);
#120=CIRCLE('',#119,1.399999752758E0);
#125=CIRCLE('',#124,1.399999752758E0);
#130=CIRCLE('',#129,1.E-1);
#135=CIRCLE('',#134,1.5E0);
#140=CIRCLE('',#139,1.5E0);
#157=CIRCLE('',#156,1.E0);
#162=CIRCLE('',#161,1.E0);
#192=EDGE_CURVE('',#177,#178,#71,.T.);
#194=EDGE_CURVE('',#178,#177,#76,.T.);
#198=EDGE_CURVE('',#185,#186,#81,.T.);
#200=EDGE_CURVE('',#186,#185,#86,.T.);
#211=EDGE_CURVE('',#178,#172,#96,.T.);
#213=EDGE_CURVE('',#174,#172,#140,.T.);
#215=EDGE_CURVE('',#177,#174,#91,.T.);
#227=EDGE_CURVE('',#172,#174,#106,.T.);
#238=EDGE_CURVE('',#170,#169,#101,.T.);
#240=EDGE_CURVE('',#172,#169,#144,.T.);
#243=EDGE_CURVE('',#174,#170,#110,.T.);
#253=EDGE_CURVE('',#166,#165,#125,.T.);
#255=EDGE_CURVE('',#165,#169,#130,.T.);
#258=EDGE_CURVE('',#166,#170,#115,.T.);
#268=EDGE_CURVE('',#165,#166,#120,.T.);
#288=EDGE_CURVE('',#169,#170,#135,.T.);
#312=EDGE_CURVE('',#185,#181,#148,.T.);
#314=EDGE_CURVE('',#181,#182,#157,.T.);
#316=EDGE_CURVE('',#186,#182,#152,.T.);
#328=EDGE_CURVE('',#182,#181,#162,.T.);
#354=ADVANCED_BREP_SHAPE_REPRESENTATION('',(#345),#353);
#362=PRODUCT_DEFINITION('design','',#361,#358);
#363=PRODUCT_DEFINITION_SHAPE('','SHAPE FOR PRT0001.',#362);
#364=SHAPE_DEFINITION_REPRESENTATION(#363,#354);
ENDSEC;
END-ISO-10303-21;
