ISO-10303-21;
HEADER;
FILE_DESCRIPTION((''),'2;1');
FILE_NAME('PRT0001','2012-02-14T',('dhelisch'),(''),
'PRO/ENGINEER BY PARAMETRIC TECHNOLOGY CORPORATION, 2007250',
'PRO/ENGINEER BY PARAMETRIC TECHNOLOGY CORPORATION, 2007250','');
FILE_SCHEMA(('CONFIG_CONTROL_DESIGN'));
ENDSEC;
DATA;
#1=COLOUR_RGB('',0.E0,0.E0,1.96E-1);
#2=COLOUR_RGB('',0.E0,0.E0,3.14E-1);
#3=COLOUR_RGB('',0.E0,0.E0,6.E-1);
#4=COLOUR_RGB('',0.E0,0.E0,8.E-1);
#5=COLOUR_RGB('',0.E0,1.96E-1,0.E0);
#6=COLOUR_RGB('',0.E0,3.14E-1,0.E0);
#7=COLOUR_RGB('',0.E0,6.E-1,0.E0);
#8=COLOUR_RGB('',0.E0,6.E-1,4.E-1);
#9=COLOUR_RGB('',0.E0,8.E-1,0.E0);
#10=COLOUR_RGB('',7.8E-2,7.8E-2,7.8E-2);
#11=COLOUR_RGB('',1.18E-1,1.18E-1,4.71E-1);
#12=COLOUR_RGB('',1.57E-1,1.57E-1,1.57E-1);
#13=COLOUR_RGB('',1.96E-1,0.E0,0.E0);
#14=COLOUR_RGB('',1.96E-1,0.E0,1.96E-1);
#15=COLOUR_RGB('',1.96E-1,5.88E-1,1.96E-1);
#16=COLOUR_RGB('',2.E-1,2.E-1,0.E0);
#17=COLOUR_RGB('',2.E-1,2.E-1,1.E0);
#18=COLOUR_RGB('',2.E-1,1.E0,2.E-1);
#19=COLOUR_RGB('',2.35E-1,2.35E-1,2.35E-1);
#20=COLOUR_RGB('',2.35E-1,2.35E-1,5.88E-1);
#21=COLOUR_RGB('',3.09804E-1,5.21569E-1,1.41176E-1);
#22=COLOUR_RGB('',3.09804E-1,1.E0,1.E0);
#23=COLOUR_RGB('',3.14E-1,3.14E-1,3.14E-1);
#24=COLOUR_RGB('',3.27543E-1,1.E0,6.33116E-1);
#25=COLOUR_RGB('',3.92E-1,0.E0,0.E0);
#26=COLOUR_RGB('',3.92E-1,0.E0,3.92E-1);
#27=COLOUR_RGB('',3.92E-1,3.92E-1,3.92E-1);
#28=COLOUR_RGB('',3.92E-1,3.92E-1,8.63E-1);
#29=COLOUR_RGB('',3.92E-1,5.88E-1,3.92E-1);
#30=COLOUR_RGB('',3.92E-1,5.88E-1,8.63E-1);
#31=COLOUR_RGB('',4.E-1,4.E-1,0.E0);
#32=COLOUR_RGB('',4.E-1,4.E-1,1.E0);
#33=COLOUR_RGB('',4.E-1,1.E0,4.E-1);
#34=COLOUR_RGB('',4.23529E-1,3.17647E-1,1.96078E-1);
#35=COLOUR_RGB('',5.01961E-1,1.E0,5.01961E-1);
#36=COLOUR_RGB('',5.13725E-1,5.13725E-1,5.13725E-1);
#37=COLOUR_RGB('',5.5E-1,5.6E-1,7.E-1);
#38=COLOUR_RGB('',5.88E-1,5.88E-1,5.88E-1);
#39=COLOUR_RGB('',5.88E-1,7.84E-1,5.88E-1);
#40=COLOUR_RGB('',6.E-1,0.E0,0.E0);
#41=COLOUR_RGB('',6.E-1,6.E-1,0.E0);
#42=COLOUR_RGB('',6.E-1,6.E-1,1.E0);
#43=COLOUR_RGB('',6.E-1,1.E0,6.E-1);
#44=COLOUR_RGB('',6.2E-1,3.1E-1,6.5E-1);
#45=COLOUR_RGB('',6.66667E-1,5.05882E-1,2.15686E-1);
#46=COLOUR_RGB('',6.8E-1,8.5E-1,1.E0);
#47=COLOUR_RGB('',6.82353E-1,5.09804E-1,3.17647E-1);
#48=COLOUR_RGB('',7.01961E-1,7.01961E-1,7.01961E-1);
#49=COLOUR_RGB('',7.01961E-1,1.E0,1.E0);
#50=COLOUR_RGB('',8.E-1,0.E0,0.E0);
#51=COLOUR_RGB('',8.E-1,8.E-1,1.E0);
#52=COLOUR_RGB('',8.E-1,9.21569E-1,0.E0);
#53=COLOUR_RGB('',8.E-1,1.E0,8.E-1);
#54=COLOUR_RGB('',8.23529E-1,6.15686E-1,3.84314E-1);
#55=COLOUR_RGB('',8.784E-1,9.49E-1,1.E0);
#56=COLOUR_RGB('',9.01961E-1,4.11765E-1,4.11765E-1);
#57=COLOUR_RGB('',9.8E-1,3.92E-1,0.E0);
#58=COLOUR_RGB('',9.8E-1,5.88E-1,0.E0);
#59=COLOUR_RGB('',9.8E-1,7.84E-1,0.E0);
#60=COLOUR_RGB('',1.E0,2.E-1,2.E-1);
#61=COLOUR_RGB('',1.E0,3.7E-1,3.8E-1);
#62=COLOUR_RGB('',1.E0,6.E-1,6.E-1);
#63=COLOUR_RGB('',1.E0,8.E-1,8.E-1);
#64=DRAUGHTING_PRE_DEFINED_COLOUR('yellow');
#65=COLOUR_RGB('',1.E0,1.E0,3.01961E-1);
#66=COLOUR_RGB('',1.E0,1.E0,5.01961E-1);
#67=DRAUGHTING_PRE_DEFINED_COLOUR('white');
#69=CARTESIAN_POINT('',(-1.598721155460E-14,0.E0,-4.000659210135E-6));
#70=DIRECTION('',(0.E0,0.E0,-1.E0));
#71=DIRECTION('',(-1.E0,0.E0,0.E0));
#72=AXIS2_PLACEMENT_3D('',#69,#70,#71);
#74=DRAUGHTING_PRE_DEFINED_CURVE_FONT('continuous');
#75=CURVE_STYLE('',#74,POSITIVE_LENGTH_MEASURE(2.E-2),#8);
#76=PRESENTATION_STYLE_ASSIGNMENT((#75));
#77=STYLED_ITEM('',(#76),#73);
#78=CARTESIAN_POINT('',(1.953992523340E-14,0.E0,-4.000659211911E-6));
#79=DIRECTION('',(0.E0,0.E0,-1.E0));
#80=DIRECTION('',(1.E0,0.E0,0.E0));
#81=AXIS2_PLACEMENT_3D('',#78,#79,#80);
#83=CURVE_STYLE('',#74,POSITIVE_LENGTH_MEASURE(2.E-2),#8);
#84=PRESENTATION_STYLE_ASSIGNMENT((#83));
#85=STYLED_ITEM('',(#84),#82);
#86=CARTESIAN_POINT('',(0.E0,0.E0,0.E0));
#87=DIRECTION('',(0.E0,0.E0,-1.E0));
#88=DIRECTION('',(1.E0,0.E0,0.E0));
#89=AXIS2_PLACEMENT_3D('',#86,#87,#88);
#91=CURVE_STYLE('',#74,POSITIVE_LENGTH_MEASURE(2.E-2),#8);
#92=PRESENTATION_STYLE_ASSIGNMENT((#91));
#93=STYLED_ITEM('',(#92),#90);
#94=CARTESIAN_POINT('',(0.E0,0.E0,0.E0));
#95=DIRECTION('',(0.E0,0.E0,-1.E0));
#96=DIRECTION('',(-1.E0,0.E0,0.E0));
#97=AXIS2_PLACEMENT_3D('',#94,#95,#96);
#99=CURVE_STYLE('',#74,POSITIVE_LENGTH_MEASURE(2.E-2),#8);
#100=PRESENTATION_STYLE_ASSIGNMENT((#99));
#101=STYLED_ITEM('',(#100),#98);
#102=DIRECTION('',(-7.071065329080E-1,4.264848416013E-10,7.071070294650E-1));
#103=VECTOR('',#102,1.414213562415E0);
#104=CARTESIAN_POINT('',(-1.400000178736E1,-3.070531865823E-9,
-1.787663867603E-6));
#105=LINE('',#104,#103);
#106=CURVE_STYLE('',#74,POSITIVE_LENGTH_MEASURE(2.E-2),#8);
#107=PRESENTATION_STYLE_ASSIGNMENT((#106));
#108=STYLED_ITEM('',(#107),#105);
#109=DIRECTION('',(7.071065329080E-1,-4.264882003289E-10,7.071070294650E-1));
#110=VECTOR('',#109,1.414213562415E0);
#111=CARTESIAN_POINT('',(1.400000178736E1,3.070538654556E-9,
-1.787663868787E-6));
#112=LINE('',#111,#110);
#113=CURVE_STYLE('',#74,POSITIVE_LENGTH_MEASURE(2.E-2),#8);
#114=PRESENTATION_STYLE_ASSIGNMENT((#113));
#115=STYLED_ITEM('',(#114),#112);
#116=CARTESIAN_POINT('',(0.E0,0.E0,5.799999716334E1));
#117=DIRECTION('',(0.E0,0.E0,1.E0));
#118=DIRECTION('',(-1.E0,0.E0,0.E0));
#119=AXIS2_PLACEMENT_3D('',#116,#117,#118);
#121=CURVE_STYLE('',#74,POSITIVE_LENGTH_MEASURE(2.E-2),#8);
#122=PRESENTATION_STYLE_ASSIGNMENT((#121));
#123=STYLED_ITEM('',(#122),#120);
#124=CARTESIAN_POINT('',(0.E0,0.E0,1.000002836657E0));
#125=DIRECTION('',(0.E0,0.E0,-1.E0));
#126=DIRECTION('',(1.E0,0.E0,0.E0));
#127=AXIS2_PLACEMENT_3D('',#124,#125,#126);
#129=CURVE_STYLE('',#74,POSITIVE_LENGTH_MEASURE(2.E-2),#8);
#130=PRESENTATION_STYLE_ASSIGNMENT((#129));
#131=STYLED_ITEM('',(#130),#128);
#132=DIRECTION('',(0.E0,0.E0,1.E0));
#133=VECTOR('',#132,5.700000287303E1);
#134=CARTESIAN_POINT('',(-1.500000143627E1,-2.467391218666E-9,
9.999985634844E-1));
#135=LINE('',#134,#133);
#136=CURVE_STYLE('',#74,POSITIVE_LENGTH_MEASURE(2.E-2),#8);
#137=PRESENTATION_STYLE_ASSIGNMENT((#136));
#138=STYLED_ITEM('',(#137),#135);
#139=CARTESIAN_POINT('',(0.E0,1.065814103640E-14,5.900000400066E1));
#140=DIRECTION('',(0.E0,0.E0,1.E0));
#141=DIRECTION('',(-1.E0,0.E0,0.E0));
#142=AXIS2_PLACEMENT_3D('',#139,#140,#141);
#144=CURVE_STYLE('',#74,POSITIVE_LENGTH_MEASURE(2.E-2),#8);
#145=PRESENTATION_STYLE_ASSIGNMENT((#144));
#146=STYLED_ITEM('',(#145),#143);
#147=DIRECTION('',(-7.071059009272E-1,-1.163151934880E-10,-7.071076614448E-1));
#148=VECTOR('',#147,1.414215428101E0);
#149=CARTESIAN_POINT('',(-1.400000136188E1,-2.302895034223E-9,
5.900000400066E1));
#150=LINE('',#149,#148);
#151=CURVE_STYLE('',#74,POSITIVE_LENGTH_MEASURE(2.E-2),#8);
#152=PRESENTATION_STYLE_ASSIGNMENT((#151));
#153=STYLED_ITEM('',(#152),#150);
#154=DIRECTION('',(0.E0,2.302907738178E-9,1.E0));
#155=VECTOR('',#154,9.999959993408E-1);
#156=CARTESIAN_POINT('',(-1.400000136188E1,-2.302895034223E-9,
5.900000400066E1));
#157=LINE('',#156,#155);
#158=CURVE_STYLE('',#74,POSITIVE_LENGTH_MEASURE(2.E-2),#8);
#159=PRESENTATION_STYLE_ASSIGNMENT((#158));
#160=STYLED_ITEM('',(#159),#157);
#161=DIRECTION('',(0.E0,-2.302912956248E-9,1.E0));
#162=VECTOR('',#161,9.999959993408E-1);
#163=CARTESIAN_POINT('',(1.400000136188E1,2.302903804985E-9,5.900000400066E1));
#164=LINE('',#163,#162);
#165=CURVE_STYLE('',#74,POSITIVE_LENGTH_MEASURE(2.E-2),#8);
#166=PRESENTATION_STYLE_ASSIGNMENT((#165));
#167=STYLED_ITEM('',(#166),#164);
#168=CARTESIAN_POINT('',(-1.065814103640E-14,0.E0,5.900000400066E1));
#169=DIRECTION('',(0.E0,0.E0,1.E0));
#170=DIRECTION('',(1.E0,0.E0,0.E0));
#171=AXIS2_PLACEMENT_3D('',#168,#169,#170);
#173=CURVE_STYLE('',#74,POSITIVE_LENGTH_MEASURE(2.E-2),#8);
#174=PRESENTATION_STYLE_ASSIGNMENT((#173));
#175=STYLED_ITEM('',(#174),#172);
#176=DIRECTION('',(7.071059009272E-1,1.163130631613E-10,-7.071076614448E-1));
#177=VECTOR('',#176,1.414215428101E0);
#178=CARTESIAN_POINT('',(1.400000136188E1,2.302903804985E-9,5.900000400066E1));
#179=LINE('',#178,#177);
#180=CURVE_STYLE('',#74,POSITIVE_LENGTH_MEASURE(2.E-2),#8);
#181=PRESENTATION_STYLE_ASSIGNMENT((#180));
#182=STYLED_ITEM('',(#181),#179);
#183=CARTESIAN_POINT('',(0.E0,0.E0,5.799999716334E1));
#184=DIRECTION('',(0.E0,0.E0,1.E0));
#185=DIRECTION('',(1.E0,0.E0,0.E0));
#186=AXIS2_PLACEMENT_3D('',#183,#184,#185);
#188=CURVE_STYLE('',#74,POSITIVE_LENGTH_MEASURE(2.E-2),#8);
#189=PRESENTATION_STYLE_ASSIGNMENT((#188));
#190=STYLED_ITEM('',(#189),#187);
#191=CARTESIAN_POINT('',(0.E0,0.E0,1.000002836657E0));
#192=DIRECTION('',(0.E0,0.E0,-1.E0));
#193=DIRECTION('',(-1.E0,0.E0,0.E0));
#194=AXIS2_PLACEMENT_3D('',#191,#192,#193);
#196=CURVE_STYLE('',#74,POSITIVE_LENGTH_MEASURE(2.E-2),#8);
#197=PRESENTATION_STYLE_ASSIGNMENT((#196));
#198=STYLED_ITEM('',(#197),#195);
#199=DIRECTION('',(0.E0,0.E0,1.E0));
#200=VECTOR('',#199,5.700000287303E1);
#201=CARTESIAN_POINT('',(1.500000143627E1,2.467393257441E-9,9.999985634844E-1));
#202=LINE('',#201,#200);
#203=CURVE_STYLE('',#74,POSITIVE_LENGTH_MEASURE(2.E-2),#8);
#204=PRESENTATION_STYLE_ASSIGNMENT((#203));
#205=STYLED_ITEM('',(#204),#202);
#206=CARTESIAN_POINT('',(-1.065814103640E-14,0.E0,6.E1));
#207=DIRECTION('',(0.E0,0.E0,1.E0));
#208=DIRECTION('',(1.E0,0.E0,0.E0));
#209=AXIS2_PLACEMENT_3D('',#206,#207,#208);
#211=CURVE_STYLE('',#74,POSITIVE_LENGTH_MEASURE(2.E-2),#8);
#212=PRESENTATION_STYLE_ASSIGNMENT((#211));
#213=STYLED_ITEM('',(#212),#210);
#214=CARTESIAN_POINT('',(-1.065814103640E-14,0.E0,6.E1));
#215=DIRECTION('',(0.E0,0.E0,1.E0));
#216=DIRECTION('',(-1.E0,0.E0,0.E0));
#217=AXIS2_PLACEMENT_3D('',#214,#215,#216);
#219=CURVE_STYLE('',#74,POSITIVE_LENGTH_MEASURE(2.E-2),#8);
#220=PRESENTATION_STYLE_ASSIGNMENT((#219));
#221=STYLED_ITEM('',(#220),#218);
#222=DIRECTION('',(0.E0,0.E0,-1.E0));
#223=VECTOR('',#222,1.E1);
#224=CARTESIAN_POINT('',(1.E0,0.E0,0.E0));
#225=LINE('',#224,#223);
#226=CURVE_STYLE('',#74,POSITIVE_LENGTH_MEASURE(2.E-2),#8);
#227=PRESENTATION_STYLE_ASSIGNMENT((#226));
#228=STYLED_ITEM('',(#227),#225);
#229=DIRECTION('',(0.E0,0.E0,-1.E0));
#230=VECTOR('',#229,1.E1);
#231=CARTESIAN_POINT('',(-1.E0,0.E0,0.E0));
#232=LINE('',#231,#230);
#233=CURVE_STYLE('',#74,POSITIVE_LENGTH_MEASURE(2.E-2),#8);
#234=PRESENTATION_STYLE_ASSIGNMENT((#233));
#235=STYLED_ITEM('',(#234),#232);
#236=CARTESIAN_POINT('',(0.E0,0.E0,-1.E1));
#237=DIRECTION('',(0.E0,0.E0,-1.E0));
#238=DIRECTION('',(1.E0,0.E0,0.E0));
#239=AXIS2_PLACEMENT_3D('',#236,#237,#238);
#241=CURVE_STYLE('',#74,POSITIVE_LENGTH_MEASURE(2.E-2),#8);
#242=PRESENTATION_STYLE_ASSIGNMENT((#241));
#243=STYLED_ITEM('',(#242),#240);
#244=CARTESIAN_POINT('',(0.E0,0.E0,-1.E1));
#245=DIRECTION('',(0.E0,0.E0,-1.E0));
#246=DIRECTION('',(-1.E0,0.E0,0.E0));
#247=AXIS2_PLACEMENT_3D('',#244,#245,#246);
#249=CURVE_STYLE('',#74,POSITIVE_LENGTH_MEASURE(2.E-2),#8);
#250=PRESENTATION_STYLE_ASSIGNMENT((#249));
#251=STYLED_ITEM('',(#250),#248);
#252=CARTESIAN_POINT('',(-1.5E1,0.E0,5.799999716334E1));
#253=CARTESIAN_POINT('',(1.5E1,0.E0,5.799999716334E1));
#254=VERTEX_POINT('',#252);
#255=VERTEX_POINT('',#253);
#256=CARTESIAN_POINT('',(1.500000143627E1,2.467393257441E-9,9.999985634844E-1));
#257=VERTEX_POINT('',#256);
#258=CARTESIAN_POINT('',(-1.500000143627E1,-2.467391218666E-9,
9.999985634844E-1));
#259=VERTEX_POINT('',#258);
#260=CARTESIAN_POINT('',(1.400000136188E1,0.E0,6.E1));
#261=CARTESIAN_POINT('',(-1.400000136188E1,0.E0,6.E1));
#262=VERTEX_POINT('',#260);
#263=VERTEX_POINT('',#261);
#264=CARTESIAN_POINT('',(1.400000136188E1,0.E0,5.900000400066E1));
#265=CARTESIAN_POINT('',(-1.400000136188E1,0.E0,5.900000400066E1));
#266=VERTEX_POINT('',#264);
#267=VERTEX_POINT('',#265);
#268=CARTESIAN_POINT('',(-1.400000136188E1,0.E0,-4.000659210135E-6));
#269=CARTESIAN_POINT('',(1.400000136188E1,0.E0,-4.000659210135E-6));
#270=VERTEX_POINT('',#268);
#271=VERTEX_POINT('',#269);
#272=CARTESIAN_POINT('',(1.E0,0.E0,-1.E1));
#273=CARTESIAN_POINT('',(-1.E0,0.E0,-1.E1));
#274=VERTEX_POINT('',#272);
#275=VERTEX_POINT('',#273);
#276=CARTESIAN_POINT('',(1.E0,0.E0,0.E0));
#277=CARTESIAN_POINT('',(-1.E0,0.E0,0.E0));
#278=VERTEX_POINT('',#276);
#279=VERTEX_POINT('',#277);
#280=CARTESIAN_POINT('',(0.E0,0.E0,0.E0));
#281=DIRECTION('',(0.E0,0.E0,1.E0));
#282=DIRECTION('',(1.E0,0.E0,0.E0));
#283=AXIS2_PLACEMENT_3D('',#280,#281,#282);
#284=PLANE('',#283);
#286=ORIENTED_EDGE('',*,*,#285,.F.);
#288=ORIENTED_EDGE('',*,*,#287,.F.);
#289=EDGE_LOOP('',(#286,#288));
#290=FACE_OUTER_BOUND('',#289,.F.);
#292=ORIENTED_EDGE('',*,*,#291,.T.);
#294=ORIENTED_EDGE('',*,*,#293,.T.);
#295=EDGE_LOOP('',(#292,#294));
#296=FACE_BOUND('',#295,.F.);
#297=ADVANCED_FACE('',(#290,#296),#284,.F.);
#298=CARTESIAN_POINT('',(-1.598721155460E-14,0.E0,4.999978548209E-1));
#299=DIRECTION('',(0.E0,0.E0,1.E0));
#300=DIRECTION('',(0.E0,-1.E0,0.E0));
#301=AXIS2_PLACEMENT_3D('',#298,#299,#300);
#302=CONICAL_SURFACE('',#301,1.450000340888E1,4.500001097325E1);
#303=ORIENTED_EDGE('',*,*,#285,.T.);
#305=ORIENTED_EDGE('',*,*,#304,.T.);
#307=ORIENTED_EDGE('',*,*,#306,.F.);
#309=ORIENTED_EDGE('',*,*,#308,.F.);
#310=EDGE_LOOP('',(#303,#305,#307,#309));
#311=FACE_OUTER_BOUND('',#310,.F.);
#312=ADVANCED_FACE('',(#311),#302,.T.);
#313=CARTESIAN_POINT('',(1.953992523340E-14,0.E0,4.999978548209E-1));
#314=DIRECTION('',(0.E0,0.E0,1.E0));
#315=DIRECTION('',(0.E0,-1.E0,0.E0));
#316=AXIS2_PLACEMENT_3D('',#313,#314,#315);
#317=CONICAL_SURFACE('',#316,1.450000340888E1,4.500001097325E1);
#318=ORIENTED_EDGE('',*,*,#287,.T.);
#319=ORIENTED_EDGE('',*,*,#308,.T.);
#321=ORIENTED_EDGE('',*,*,#320,.F.);
#322=ORIENTED_EDGE('',*,*,#304,.F.);
#323=EDGE_LOOP('',(#318,#319,#321,#322));
#324=FACE_OUTER_BOUND('',#323,.F.);
#325=ADVANCED_FACE('',(#324),#317,.T.);
#326=CARTESIAN_POINT('',(0.E0,0.E0,0.E0));
#327=DIRECTION('',(0.E0,0.E0,1.E0));
#328=DIRECTION('',(1.E0,0.E0,0.E0));
#329=AXIS2_PLACEMENT_3D('',#326,#327,#328);
#330=CYLINDRICAL_SURFACE('',#329,1.5E1);
#332=ORIENTED_EDGE('',*,*,#331,.T.);
#334=ORIENTED_EDGE('',*,*,#333,.F.);
#335=ORIENTED_EDGE('',*,*,#320,.T.);
#337=ORIENTED_EDGE('',*,*,#336,.T.);
#338=EDGE_LOOP('',(#332,#334,#335,#337));
#339=FACE_OUTER_BOUND('',#338,.F.);
#340=ADVANCED_FACE('',(#339),#330,.T.);
#341=CARTESIAN_POINT('',(0.E0,1.065814103640E-14,5.849999430872E1));
#342=DIRECTION('',(0.E0,0.E0,-1.E0));
#343=DIRECTION('',(0.E0,-1.E0,0.E0));
#344=AXIS2_PLACEMENT_3D('',#341,#342,#343);
#345=CONICAL_SURFACE('',#344,1.450001124534E1,4.500001097325E1);
#347=ORIENTED_EDGE('',*,*,#346,.T.);
#349=ORIENTED_EDGE('',*,*,#348,.T.);
#350=ORIENTED_EDGE('',*,*,#331,.F.);
#352=ORIENTED_EDGE('',*,*,#351,.F.);
#353=EDGE_LOOP('',(#347,#349,#350,#352));
#354=FACE_OUTER_BOUND('',#353,.F.);
#355=ADVANCED_FACE('',(#354),#345,.T.);
#356=CARTESIAN_POINT('',(-1.065814103640E-14,0.E0,5.9E1));
#357=DIRECTION('',(0.E0,0.E0,1.E0));
#358=DIRECTION('',(1.E0,0.E0,0.E0));
#359=AXIS2_PLACEMENT_3D('',#356,#357,#358);
#360=CYLINDRICAL_SURFACE('',#359,1.400000136188E1);
#361=ORIENTED_EDGE('',*,*,#346,.F.);
#363=ORIENTED_EDGE('',*,*,#362,.T.);
#365=ORIENTED_EDGE('',*,*,#364,.T.);
#367=ORIENTED_EDGE('',*,*,#366,.F.);
#368=EDGE_LOOP('',(#361,#363,#365,#367));
#369=FACE_OUTER_BOUND('',#368,.F.);
#370=ADVANCED_FACE('',(#369),#360,.T.);
#371=CARTESIAN_POINT('',(-1.065814103640E-14,0.E0,5.9E1));
#372=DIRECTION('',(0.E0,0.E0,1.E0));
#373=DIRECTION('',(1.E0,0.E0,0.E0));
#374=AXIS2_PLACEMENT_3D('',#371,#372,#373);
#375=CYLINDRICAL_SURFACE('',#374,1.400000136188E1);
#377=ORIENTED_EDGE('',*,*,#376,.F.);
#378=ORIENTED_EDGE('',*,*,#366,.T.);
#380=ORIENTED_EDGE('',*,*,#379,.T.);
#381=ORIENTED_EDGE('',*,*,#362,.F.);
#382=EDGE_LOOP('',(#377,#378,#380,#381));
#383=FACE_OUTER_BOUND('',#382,.F.);
#384=ADVANCED_FACE('',(#383),#375,.T.);
#385=CARTESIAN_POINT('',(-1.065814103640E-14,0.E0,5.849999430872E1));
#386=DIRECTION('',(0.E0,0.E0,-1.E0));
#387=DIRECTION('',(0.E0,-1.E0,0.E0));
#388=AXIS2_PLACEMENT_3D('',#385,#386,#387);
#389=CONICAL_SURFACE('',#388,1.450001124534E1,4.500001097325E1);
#390=ORIENTED_EDGE('',*,*,#376,.T.);
#391=ORIENTED_EDGE('',*,*,#351,.T.);
#393=ORIENTED_EDGE('',*,*,#392,.F.);
#394=ORIENTED_EDGE('',*,*,#348,.F.);
#395=EDGE_LOOP('',(#390,#391,#393,#394));
#396=FACE_OUTER_BOUND('',#395,.F.);
#397=ADVANCED_FACE('',(#396),#389,.T.);
#398=CARTESIAN_POINT('',(0.E0,0.E0,0.E0));
#399=DIRECTION('',(0.E0,0.E0,1.E0));
#400=DIRECTION('',(1.E0,0.E0,0.E0));
#401=AXIS2_PLACEMENT_3D('',#398,#399,#400);
#402=CYLINDRICAL_SURFACE('',#401,1.5E1);
#403=ORIENTED_EDGE('',*,*,#392,.T.);
#404=ORIENTED_EDGE('',*,*,#336,.F.);
#405=ORIENTED_EDGE('',*,*,#306,.T.);
#406=ORIENTED_EDGE('',*,*,#333,.T.);
#407=EDGE_LOOP('',(#403,#404,#405,#406));
#408=FACE_OUTER_BOUND('',#407,.F.);
#409=ADVANCED_FACE('',(#408),#402,.T.);
#410=CARTESIAN_POINT('',(0.E0,0.E0,6.E1));
#411=DIRECTION('',(0.E0,0.E0,1.E0));
#412=DIRECTION('',(1.E0,0.E0,0.E0));
#413=AXIS2_PLACEMENT_3D('',#410,#411,#412);
#414=PLANE('',#413);
#415=ORIENTED_EDGE('',*,*,#379,.F.);
#416=ORIENTED_EDGE('',*,*,#364,.F.);
#417=EDGE_LOOP('',(#415,#416));
#418=FACE_OUTER_BOUND('',#417,.F.);
#419=ADVANCED_FACE('',(#418),#414,.T.);
#420=CARTESIAN_POINT('',(0.E0,0.E0,0.E0));
#421=DIRECTION('',(0.E0,0.E0,-1.E0));
#422=DIRECTION('',(1.E0,0.E0,0.E0));
#423=AXIS2_PLACEMENT_3D('',#420,#421,#422);
#424=CYLINDRICAL_SURFACE('',#423,1.E0);
#425=ORIENTED_EDGE('',*,*,#291,.F.);
#427=ORIENTED_EDGE('',*,*,#426,.T.);
#429=ORIENTED_EDGE('',*,*,#428,.T.);
#431=ORIENTED_EDGE('',*,*,#430,.F.);
#432=EDGE_LOOP('',(#425,#427,#429,#431));
#433=FACE_OUTER_BOUND('',#432,.F.);
#434=ADVANCED_FACE('',(#433),#424,.T.);
#435=FILL_AREA_STYLE_COLOUR('',#55);
#436=FILL_AREA_STYLE('',(#435));
#437=SURFACE_STYLE_FILL_AREA(#436);
#438=SURFACE_SIDE_STYLE('',(#437));
#439=SURFACE_STYLE_USAGE(.POSITIVE.,#438);
#440=FILL_AREA_STYLE_COLOUR('',#8);
#441=FILL_AREA_STYLE('',(#440));
#442=SURFACE_STYLE_FILL_AREA(#441);
#443=SURFACE_SIDE_STYLE('',(#442));
#444=SURFACE_STYLE_USAGE(.NEGATIVE.,#443);
#445=PRESENTATION_STYLE_ASSIGNMENT((#439,#444));
#446=OVER_RIDING_STYLED_ITEM('',(#445),#434,#68);
#447=CARTESIAN_POINT('',(0.E0,0.E0,0.E0));
#448=DIRECTION('',(0.E0,0.E0,-1.E0));
#449=DIRECTION('',(1.E0,0.E0,0.E0));
#450=AXIS2_PLACEMENT_3D('',#447,#448,#449);
#451=CYLINDRICAL_SURFACE('',#450,1.E0);
#452=ORIENTED_EDGE('',*,*,#293,.F.);
#453=ORIENTED_EDGE('',*,*,#430,.T.);
#455=ORIENTED_EDGE('',*,*,#454,.T.);
#456=ORIENTED_EDGE('',*,*,#426,.F.);
#457=EDGE_LOOP('',(#452,#453,#455,#456));
#458=FACE_OUTER_BOUND('',#457,.F.);
#459=ADVANCED_FACE('',(#458),#451,.T.);
#460=FILL_AREA_STYLE_COLOUR('',#55);
#461=FILL_AREA_STYLE('',(#460));
#462=SURFACE_STYLE_FILL_AREA(#461);
#463=SURFACE_SIDE_STYLE('',(#462));
#464=SURFACE_STYLE_USAGE(.POSITIVE.,#463);
#465=FILL_AREA_STYLE_COLOUR('',#8);
#466=FILL_AREA_STYLE('',(#465));
#467=SURFACE_STYLE_FILL_AREA(#466);
#468=SURFACE_SIDE_STYLE('',(#467));
#469=SURFACE_STYLE_USAGE(.NEGATIVE.,#468);
#470=PRESENTATION_STYLE_ASSIGNMENT((#464,#469));
#471=OVER_RIDING_STYLED_ITEM('',(#470),#459,#68);
#472=CARTESIAN_POINT('',(0.E0,0.E0,-1.E1));
#473=DIRECTION('',(0.E0,0.E0,-1.E0));
#474=DIRECTION('',(1.E0,0.E0,0.E0));
#475=AXIS2_PLACEMENT_3D('',#472,#473,#474);
#476=PLANE('',#475);
#477=ORIENTED_EDGE('',*,*,#428,.F.);
#478=ORIENTED_EDGE('',*,*,#454,.F.);
#479=EDGE_LOOP('',(#477,#478));
#480=FACE_OUTER_BOUND('',#479,.F.);
#481=ADVANCED_FACE('',(#480),#476,.T.);
#482=FILL_AREA_STYLE_COLOUR('',#55);
#483=FILL_AREA_STYLE('',(#482));
#484=SURFACE_STYLE_FILL_AREA(#483);
#485=SURFACE_SIDE_STYLE('',(#484));
#486=SURFACE_STYLE_USAGE(.POSITIVE.,#485);
#487=FILL_AREA_STYLE_COLOUR('',#8);
#488=FILL_AREA_STYLE('',(#487));
#489=SURFACE_STYLE_FILL_AREA(#488);
#490=SURFACE_SIDE_STYLE('',(#489));
#491=SURFACE_STYLE_USAGE(.NEGATIVE.,#490);
#492=PRESENTATION_STYLE_ASSIGNMENT((#486,#491));
#493=OVER_RIDING_STYLED_ITEM('',(#492),#481,#68);
#494=CLOSED_SHELL('',(#297,#312,#325,#340,#355,#370,#384,#397,#409,#419,#434,
#459,#481));
#495=MANIFOLD_SOLID_BREP('',#494);
#496=FILL_AREA_STYLE_COLOUR('',#8);
#497=FILL_AREA_STYLE('',(#496));
#498=SURFACE_STYLE_FILL_AREA(#497);
#499=SURFACE_SIDE_STYLE('',(#498));
#500=SURFACE_STYLE_USAGE(.BOTH.,#499);
#501=PRESENTATION_STYLE_ASSIGNMENT((#500));
#68=STYLED_ITEM('',(#501),#495);
#502=(LENGTH_UNIT()NAMED_UNIT(*)SI_UNIT(.MILLI.,.METRE.));
#503=DIMENSIONAL_EXPONENTS(0.E0,0.E0,0.E0,0.E0,0.E0,0.E0,0.E0);
#504=(NAMED_UNIT(*)PLANE_ANGLE_UNIT()SI_UNIT($,.RADIAN.));
#505=PLANE_ANGLE_MEASURE_WITH_UNIT(PLANE_ANGLE_MEASURE(1.745329251994E-2),#504);
#506=(CONVERSION_BASED_UNIT('DEGREE',#505)NAMED_UNIT(#503)PLANE_ANGLE_UNIT());
#507=(NAMED_UNIT(*)SI_UNIT($,.STERADIAN.)SOLID_ANGLE_UNIT());
#508=UNCERTAINTY_MEASURE_WITH_UNIT(LENGTH_MEASURE(8.185028455192E-3),#502,
'closure',
'Maximum model space distance between geometric entities at asserted connectivities');
#509=(GEOMETRIC_REPRESENTATION_CONTEXT(3)GLOBAL_UNCERTAINTY_ASSIGNED_CONTEXT((
#508))GLOBAL_UNIT_ASSIGNED_CONTEXT((#502,#506,#507))REPRESENTATION_CONTEXT
('ID1','3'));
#511=MECHANICAL_DESIGN_GEOMETRIC_PRESENTATION_REPRESENTATION('',(#77,#85,#93,
#101,#108,#115,#123,#131,#138,#146,#153,#160,#167,#175,#182,#190,#198,#205,#213,
#221,#228,#235,#243,#251,#446,#471,#493,#68),#509);
#512=APPLICATION_CONTEXT(
'CONFIGURATION CONTROLLED 3D DESIGNS OF MECHANICAL PARTS AND ASSEMBLIES');
#513=APPLICATION_PROTOCOL_DEFINITION('international standard',
'config_control_design',1994,#512);
#514=DESIGN_CONTEXT('',#512,'design');
#515=MECHANICAL_CONTEXT('',#512,'mechanical');
#516=PRODUCT('PRT0001','PRT0001','NOT SPECIFIED',(#515));
#517=PRODUCT_DEFINITION_FORMATION_WITH_SPECIFIED_SOURCE('1','LAST_VERSION',#516,
.MADE.);
#521=PRODUCT_CATEGORY('part','');
#522=PRODUCT_RELATED_PRODUCT_CATEGORY('detail','',(#516));
#523=PRODUCT_CATEGORY_RELATIONSHIP('','',#521,#522);
#524=SECURITY_CLASSIFICATION_LEVEL('unclassified');
#525=SECURITY_CLASSIFICATION('','',#524);
#526=CC_DESIGN_SECURITY_CLASSIFICATION(#525,(#517));
#527=APPROVAL_STATUS('approved');
#528=APPROVAL(#527,'');
#529=CC_DESIGN_APPROVAL(#528,(#525,#517,#518));
#530=CALENDAR_DATE(112,14,2);
#531=COORDINATED_UNIVERSAL_TIME_OFFSET(1,0,.AHEAD.);
#532=LOCAL_TIME(11,49,5.7E1,#531);
#533=DATE_AND_TIME(#530,#532);
#534=APPROVAL_DATE_TIME(#533,#528);
#535=DATE_TIME_ROLE('creation_date');
#536=CC_DESIGN_DATE_AND_TIME_ASSIGNMENT(#533,#535,(#518));
#537=DATE_TIME_ROLE('classification_date');
#538=CC_DESIGN_DATE_AND_TIME_ASSIGNMENT(#533,#537,(#525));
#539=PERSON('UNSPECIFIED','UNSPECIFIED',$,$,$,$);
#540=ORGANIZATION('UNSPECIFIED','UNSPECIFIED','UNSPECIFIED');
#541=PERSON_AND_ORGANIZATION(#539,#540);
#542=APPROVAL_ROLE('approver');
#543=APPROVAL_PERSON_ORGANIZATION(#541,#528,#542);
#544=PERSON_AND_ORGANIZATION_ROLE('creator');
#545=CC_DESIGN_PERSON_AND_ORGANIZATION_ASSIGNMENT(#541,#544,(#517,#518));
#546=PERSON_AND_ORGANIZATION_ROLE('design_supplier');
#547=CC_DESIGN_PERSON_AND_ORGANIZATION_ASSIGNMENT(#541,#546,(#517));
#548=PERSON_AND_ORGANIZATION_ROLE('classification_officer');
#549=CC_DESIGN_PERSON_AND_ORGANIZATION_ASSIGNMENT(#541,#548,(#525));
#550=PERSON_AND_ORGANIZATION_ROLE('design_owner');
#551=CC_DESIGN_PERSON_AND_ORGANIZATION_ASSIGNMENT(#541,#550,(#516));
#73=CIRCLE('',#72,1.400000136188E1);
#82=CIRCLE('',#81,1.400000136188E1);
#90=CIRCLE('',#89,1.E0);
#98=CIRCLE('',#97,1.E0);
#120=CIRCLE('',#119,1.5E1);
#128=CIRCLE('',#127,1.5E1);
#143=CIRCLE('',#142,1.400000136188E1);
#172=CIRCLE('',#171,1.400000136188E1);
#187=CIRCLE('',#186,1.5E1);
#195=CIRCLE('',#194,1.5E1);
#210=CIRCLE('',#209,1.400000136188E1);
#218=CIRCLE('',#217,1.400000136188E1);
#240=CIRCLE('',#239,1.E0);
#248=CIRCLE('',#247,1.E0);
#285=EDGE_CURVE('',#270,#271,#73,.T.);
#287=EDGE_CURVE('',#271,#270,#82,.T.);
#291=EDGE_CURVE('',#278,#279,#90,.T.);
#293=EDGE_CURVE('',#279,#278,#98,.T.);
#304=EDGE_CURVE('',#271,#257,#112,.T.);
#306=EDGE_CURVE('',#259,#257,#195,.T.);
#308=EDGE_CURVE('',#270,#259,#105,.T.);
#320=EDGE_CURVE('',#257,#259,#128,.T.);
#331=EDGE_CURVE('',#254,#255,#120,.T.);
#333=EDGE_CURVE('',#257,#255,#202,.T.);
#336=EDGE_CURVE('',#259,#254,#135,.T.);
#346=EDGE_CURVE('',#267,#266,#143,.T.);
#348=EDGE_CURVE('',#266,#255,#179,.T.);
#351=EDGE_CURVE('',#267,#254,#150,.T.);
#362=EDGE_CURVE('',#267,#263,#157,.T.);
#364=EDGE_CURVE('',#263,#262,#218,.T.);
#366=EDGE_CURVE('',#266,#262,#164,.T.);
#376=EDGE_CURVE('',#266,#267,#172,.T.);
#379=EDGE_CURVE('',#262,#263,#210,.T.);
#392=EDGE_CURVE('',#255,#254,#187,.T.);
#426=EDGE_CURVE('',#278,#274,#225,.T.);
#428=EDGE_CURVE('',#274,#275,#240,.T.);
#430=EDGE_CURVE('',#279,#275,#232,.T.);
#454=EDGE_CURVE('',#275,#274,#248,.T.);
#510=ADVANCED_BREP_SHAPE_REPRESENTATION('',(#495),#509);
#518=PRODUCT_DEFINITION('design','',#517,#514);
#519=PRODUCT_DEFINITION_SHAPE('','SHAPE FOR PRT0001.',#518);
#520=SHAPE_DEFINITION_REPRESENTATION(#519,#510);
ENDSEC;
END-ISO-10303-21;
