ISO-10303-21;
HEADER;
FILE_DESCRIPTION((''),'2;1');
FILE_NAME('CAD1552','2012-02-14T',('dhelisch'),(''),
'PRO/ENGINEER BY PARAMETRIC TECHNOLOGY CORPORATION, 2007250',
'PRO/ENGINEER BY PARAMETRIC TECHNOLOGY CORPORATION, 2007250','');
FILE_SCHEMA(('CONFIG_CONTROL_DESIGN'));
ENDSEC;
DATA;
#1=COLOUR_RGB('',0.E0,0.E0,1.96E-1);
#2=COLOUR_RGB('',0.E0,0.E0,3.14E-1);
#3=COLOUR_RGB('',0.E0,0.E0,6.E-1);
#4=COLOUR_RGB('',0.E0,0.E0,8.E-1);
#5=COLOUR_RGB('',0.E0,1.96E-1,0.E0);
#6=COLOUR_RGB('',0.E0,3.14E-1,0.E0);
#7=COLOUR_RGB('',0.E0,6.E-1,0.E0);
#8=COLOUR_RGB('',0.E0,6.E-1,4.E-1);
#9=COLOUR_RGB('',0.E0,8.E-1,0.E0);
#10=COLOUR_RGB('',7.8E-2,7.8E-2,7.8E-2);
#11=COLOUR_RGB('',1.18E-1,1.18E-1,4.71E-1);
#12=COLOUR_RGB('',1.57E-1,1.57E-1,1.57E-1);
#13=COLOUR_RGB('',1.96E-1,0.E0,0.E0);
#14=COLOUR_RGB('',1.96E-1,0.E0,1.96E-1);
#15=COLOUR_RGB('',1.96E-1,5.88E-1,1.96E-1);
#16=COLOUR_RGB('',2.E-1,2.E-1,0.E0);
#17=COLOUR_RGB('',2.E-1,2.E-1,1.E0);
#18=COLOUR_RGB('',2.E-1,1.E0,2.E-1);
#19=COLOUR_RGB('',2.35E-1,2.35E-1,2.35E-1);
#20=COLOUR_RGB('',2.35E-1,2.35E-1,5.88E-1);
#21=COLOUR_RGB('',3.09804E-1,5.21569E-1,1.41176E-1);
#22=COLOUR_RGB('',3.09804E-1,1.E0,1.E0);
#23=COLOUR_RGB('',3.14E-1,3.14E-1,3.14E-1);
#24=COLOUR_RGB('',3.27543E-1,1.E0,6.33116E-1);
#25=COLOUR_RGB('',3.92E-1,0.E0,0.E0);
#26=COLOUR_RGB('',3.92E-1,0.E0,3.92E-1);
#27=COLOUR_RGB('',3.92E-1,3.92E-1,3.92E-1);
#28=COLOUR_RGB('',3.92E-1,3.92E-1,8.63E-1);
#29=COLOUR_RGB('',3.92E-1,5.88E-1,3.92E-1);
#30=COLOUR_RGB('',3.92E-1,5.88E-1,8.63E-1);
#31=COLOUR_RGB('',4.E-1,4.E-1,0.E0);
#32=COLOUR_RGB('',4.E-1,4.E-1,1.E0);
#33=COLOUR_RGB('',4.E-1,1.E0,4.E-1);
#34=COLOUR_RGB('',4.23529E-1,3.17647E-1,1.96078E-1);
#35=COLOUR_RGB('',5.01961E-1,1.E0,5.01961E-1);
#36=COLOUR_RGB('',5.13725E-1,5.13725E-1,5.13725E-1);
#37=COLOUR_RGB('',5.5E-1,5.6E-1,7.E-1);
#38=COLOUR_RGB('',5.88E-1,5.88E-1,5.88E-1);
#39=COLOUR_RGB('',5.88E-1,7.84E-1,5.88E-1);
#40=COLOUR_RGB('',6.E-1,0.E0,0.E0);
#41=COLOUR_RGB('',6.E-1,6.E-1,0.E0);
#42=COLOUR_RGB('',6.E-1,6.E-1,1.E0);
#43=COLOUR_RGB('',6.E-1,1.E0,6.E-1);
#44=COLOUR_RGB('',6.2E-1,3.1E-1,6.5E-1);
#45=COLOUR_RGB('',6.66667E-1,5.05882E-1,2.15686E-1);
#46=COLOUR_RGB('',6.8E-1,8.5E-1,1.E0);
#47=COLOUR_RGB('',6.82353E-1,5.09804E-1,3.17647E-1);
#48=COLOUR_RGB('',7.01961E-1,7.01961E-1,7.01961E-1);
#49=COLOUR_RGB('',7.01961E-1,1.E0,1.E0);
#50=COLOUR_RGB('',8.E-1,0.E0,0.E0);
#51=COLOUR_RGB('',8.E-1,8.E-1,1.E0);
#52=COLOUR_RGB('',8.E-1,9.21569E-1,0.E0);
#53=COLOUR_RGB('',8.E-1,1.E0,8.E-1);
#54=COLOUR_RGB('',8.23529E-1,6.15686E-1,3.84314E-1);
#55=COLOUR_RGB('',8.784E-1,9.49E-1,1.E0);
#56=COLOUR_RGB('',9.01961E-1,4.11765E-1,4.11765E-1);
#57=COLOUR_RGB('',9.8E-1,3.92E-1,0.E0);
#58=COLOUR_RGB('',9.8E-1,5.88E-1,0.E0);
#59=COLOUR_RGB('',9.8E-1,7.84E-1,0.E0);
#60=COLOUR_RGB('',1.E0,2.E-1,2.E-1);
#61=COLOUR_RGB('',1.E0,3.7E-1,3.8E-1);
#62=COLOUR_RGB('',1.E0,6.E-1,6.E-1);
#63=COLOUR_RGB('',1.E0,8.E-1,8.E-1);
#64=DRAUGHTING_PRE_DEFINED_COLOUR('yellow');
#65=COLOUR_RGB('',1.E0,1.E0,3.01961E-1);
#66=COLOUR_RGB('',1.E0,1.E0,5.01961E-1);
#67=DRAUGHTING_PRE_DEFINED_COLOUR('white');
#69=CARTESIAN_POINT('',(0.E0,0.E0,1.8E1));
#70=DIRECTION('',(0.E0,0.E0,1.E0));
#71=DIRECTION('',(-1.E0,0.E0,0.E0));
#72=AXIS2_PLACEMENT_3D('',#69,#70,#71);
#74=DRAUGHTING_PRE_DEFINED_CURVE_FONT('continuous');
#75=CURVE_STYLE('',#74,POSITIVE_LENGTH_MEASURE(2.E-2),#8);
#76=PRESENTATION_STYLE_ASSIGNMENT((#75));
#77=STYLED_ITEM('',(#76),#73);
#78=CARTESIAN_POINT('',(0.E0,0.E0,1.8E1));
#79=DIRECTION('',(0.E0,0.E0,1.E0));
#80=DIRECTION('',(1.E0,0.E0,0.E0));
#81=AXIS2_PLACEMENT_3D('',#78,#79,#80);
#83=CURVE_STYLE('',#74,POSITIVE_LENGTH_MEASURE(2.E-2),#8);
#84=PRESENTATION_STYLE_ASSIGNMENT((#83));
#85=STYLED_ITEM('',(#84),#82);
#86=CARTESIAN_POINT('',(-1.25E1,0.E0,1.65E1));
#87=DIRECTION('',(0.E0,-1.E0,0.E0));
#88=DIRECTION('',(0.E0,0.E0,1.E0));
#89=AXIS2_PLACEMENT_3D('',#86,#87,#88);
#91=CURVE_STYLE('',#74,POSITIVE_LENGTH_MEASURE(2.E-2),#8);
#92=PRESENTATION_STYLE_ASSIGNMENT((#91));
#93=STYLED_ITEM('',(#92),#90);
#94=CARTESIAN_POINT('',(1.25E1,0.E0,1.65E1));
#95=DIRECTION('',(0.E0,1.E0,0.E0));
#96=DIRECTION('',(0.E0,0.E0,1.E0));
#97=AXIS2_PLACEMENT_3D('',#94,#95,#96);
#99=CURVE_STYLE('',#74,POSITIVE_LENGTH_MEASURE(2.E-2),#8);
#100=PRESENTATION_STYLE_ASSIGNMENT((#99));
#101=STYLED_ITEM('',(#100),#98);
#102=CARTESIAN_POINT('',(0.E0,0.E0,5.362541234106E-6));
#103=DIRECTION('',(0.E0,0.E0,1.E0));
#104=DIRECTION('',(1.E0,0.E0,0.E0));
#105=AXIS2_PLACEMENT_3D('',#102,#103,#104);
#107=CURVE_STYLE('',#74,POSITIVE_LENGTH_MEASURE(2.E-2),#8);
#108=PRESENTATION_STYLE_ASSIGNMENT((#107));
#109=STYLED_ITEM('',(#108),#106);
#110=DIRECTION('',(-8.124383895018E-8,1.389528327631E-10,1.E0));
#111=VECTOR('',#110,1.649999865925E1);
#112=CARTESIAN_POINT('',(1.400000134052E1,-2.302902072583E-9,
1.340747908696E-6));
#113=LINE('',#112,#111);
#114=CURVE_STYLE('',#74,POSITIVE_LENGTH_MEASURE(2.E-2),#8);
#115=PRESENTATION_STYLE_ASSIGNMENT((#114));
#116=STYLED_ITEM('',(#115),#113);
#117=CARTESIAN_POINT('',(0.E0,0.E0,1.65E1));
#118=DIRECTION('',(0.E0,0.E0,1.E0));
#119=DIRECTION('',(1.E0,0.E0,0.E0));
#120=AXIS2_PLACEMENT_3D('',#117,#118,#119);
#122=CURVE_STYLE('',#74,POSITIVE_LENGTH_MEASURE(2.E-2),#8);
#123=PRESENTATION_STYLE_ASSIGNMENT((#122));
#124=STYLED_ITEM('',(#123),#121);
#125=DIRECTION('',(7.071068488989E-1,-1.163124004837E-10,-7.071067134742E-1));
#126=VECTOR('',#125,1.414213562362E0);
#127=CARTESIAN_POINT('',(1.400000134052E1,-2.302902072583E-9,
1.340747908696E-6));
#128=LINE('',#127,#126);
#129=CURVE_STYLE('',#74,POSITIVE_LENGTH_MEASURE(2.E-2),#8);
#130=PRESENTATION_STYLE_ASSIGNMENT((#129));
#131=STYLED_ITEM('',(#130),#128);
#132=DIRECTION('',(-7.071068488989E-1,1.163124504402E-10,-7.071067134742E-1));
#133=VECTOR('',#132,1.414213562362E0);
#134=CARTESIAN_POINT('',(-1.400000134052E1,2.302904515075E-9,
1.340747899814E-6));
#135=LINE('',#134,#133);
#136=CURVE_STYLE('',#74,POSITIVE_LENGTH_MEASURE(2.E-2),#8);
#137=PRESENTATION_STYLE_ASSIGNMENT((#136));
#138=STYLED_ITEM('',(#137),#135);
#139=CARTESIAN_POINT('',(0.E0,0.E0,5.362541231985E-6));
#140=DIRECTION('',(0.E0,0.E0,1.E0));
#141=DIRECTION('',(-1.E0,0.E0,0.E0));
#142=AXIS2_PLACEMENT_3D('',#139,#140,#141);
#144=CURVE_STYLE('',#74,POSITIVE_LENGTH_MEASURE(2.E-2),#8);
#145=PRESENTATION_STYLE_ASSIGNMENT((#144));
#146=STYLED_ITEM('',(#145),#143);
#147=DIRECTION('',(8.124383830423E-8,-1.389530065591E-10,1.E0));
#148=VECTOR('',#147,1.649999865925E1);
#149=CARTESIAN_POINT('',(-1.400000134052E1,2.302904515075E-9,
1.340747899814E-6));
#150=LINE('',#149,#148);
#151=CURVE_STYLE('',#74,POSITIVE_LENGTH_MEASURE(2.E-2),#8);
#152=PRESENTATION_STYLE_ASSIGNMENT((#151));
#153=STYLED_ITEM('',(#152),#150);
#154=CARTESIAN_POINT('',(0.E0,0.E0,1.65E1));
#155=DIRECTION('',(0.E0,0.E0,1.E0));
#156=DIRECTION('',(-1.E0,0.E0,0.E0));
#157=AXIS2_PLACEMENT_3D('',#154,#155,#156);
#159=CURVE_STYLE('',#74,POSITIVE_LENGTH_MEASURE(2.E-2),#8);
#160=PRESENTATION_STYLE_ASSIGNMENT((#159));
#161=STYLED_ITEM('',(#160),#158);
#162=CARTESIAN_POINT('',(0.E0,0.E0,-1.000002836657E0));
#163=DIRECTION('',(0.E0,0.E0,1.E0));
#164=DIRECTION('',(-1.E0,0.E0,0.E0));
#165=AXIS2_PLACEMENT_3D('',#162,#163,#164);
#167=CURVE_STYLE('',#74,POSITIVE_LENGTH_MEASURE(2.E-2),#8);
#168=PRESENTATION_STYLE_ASSIGNMENT((#167));
#169=STYLED_ITEM('',(#168),#166);
#170=DIRECTION('',(-3.590687103039E-8,6.168485987791E-11,-1.E0));
#171=VECTOR('',#170,4.000000143652E1);
#172=CARTESIAN_POINT('',(1.500000143627E1,-2.467392646818E-9,
-9.999985634844E-1));
#173=LINE('',#172,#171);
#174=CURVE_STYLE('',#74,POSITIVE_LENGTH_MEASURE(2.E-2),#8);
#175=PRESENTATION_STYLE_ASSIGNMENT((#174));
#176=STYLED_ITEM('',(#175),#173);
#177=CARTESIAN_POINT('',(0.E0,0.E0,-1.000002836657E0));
#178=DIRECTION('',(0.E0,0.E0,1.E0));
#179=DIRECTION('',(1.E0,0.E0,0.E0));
#180=AXIS2_PLACEMENT_3D('',#177,#178,#179);
#182=CURVE_STYLE('',#74,POSITIVE_LENGTH_MEASURE(2.E-2),#8);
#183=PRESENTATION_STYLE_ASSIGNMENT((#182));
#184=STYLED_ITEM('',(#183),#181);
#185=DIRECTION('',(3.590687076394E-8,-6.168492270643E-11,-1.E0));
#186=VECTOR('',#185,4.000000143652E1);
#187=CARTESIAN_POINT('',(-1.500000143627E1,2.467395159959E-9,
-9.999985634844E-1));
#188=LINE('',#187,#186);
#189=CURVE_STYLE('',#74,POSITIVE_LENGTH_MEASURE(2.E-2),#8);
#190=PRESENTATION_STYLE_ASSIGNMENT((#189));
#191=STYLED_ITEM('',(#190),#188);
#192=CARTESIAN_POINT('',(0.E0,0.E0,-4.1E1));
#193=DIRECTION('',(0.E0,0.E0,-1.E0));
#194=DIRECTION('',(1.E0,0.E0,0.E0));
#195=AXIS2_PLACEMENT_3D('',#192,#193,#194);
#197=CURVE_STYLE('',#74,POSITIVE_LENGTH_MEASURE(2.E-2),#8);
#198=PRESENTATION_STYLE_ASSIGNMENT((#197));
#199=STYLED_ITEM('',(#198),#196);
#200=CARTESIAN_POINT('',(0.E0,0.E0,-4.1E1));
#201=DIRECTION('',(0.E0,0.E0,-1.E0));
#202=DIRECTION('',(-1.E0,0.E0,0.E0));
#203=AXIS2_PLACEMENT_3D('',#200,#201,#202);
#205=CURVE_STYLE('',#74,POSITIVE_LENGTH_MEASURE(2.E-2),#8);
#206=PRESENTATION_STYLE_ASSIGNMENT((#205));
#207=STYLED_ITEM('',(#206),#204);
#208=CARTESIAN_POINT('',(0.E0,0.E0,-4.1E1));
#209=DIRECTION('',(0.E0,0.E0,-1.E0));
#210=DIRECTION('',(1.E0,0.E0,0.E0));
#211=AXIS2_PLACEMENT_3D('',#208,#209,#210);
#213=CURVE_STYLE('',#74,POSITIVE_LENGTH_MEASURE(2.E-2),#8);
#214=PRESENTATION_STYLE_ASSIGNMENT((#213));
#215=STYLED_ITEM('',(#214),#212);
#216=CARTESIAN_POINT('',(0.E0,0.E0,-4.1E1));
#217=DIRECTION('',(0.E0,0.E0,-1.E0));
#218=DIRECTION('',(-1.E0,0.E0,0.E0));
#219=AXIS2_PLACEMENT_3D('',#216,#217,#218);
#221=CURVE_STYLE('',#74,POSITIVE_LENGTH_MEASURE(2.E-2),#8);
#222=PRESENTATION_STYLE_ASSIGNMENT((#221));
#223=STYLED_ITEM('',(#222),#220);
#224=DIRECTION('',(0.E0,0.E0,-1.E0));
#225=VECTOR('',#224,1.E0);
#226=CARTESIAN_POINT('',(1.4E1,0.E0,-4.1E1));
#227=LINE('',#226,#225);
#228=CURVE_STYLE('',#74,POSITIVE_LENGTH_MEASURE(2.E-2),#8);
#229=PRESENTATION_STYLE_ASSIGNMENT((#228));
#230=STYLED_ITEM('',(#229),#227);
#231=DIRECTION('',(0.E0,0.E0,-1.E0));
#232=VECTOR('',#231,1.E0);
#233=CARTESIAN_POINT('',(-1.4E1,0.E0,-4.1E1));
#234=LINE('',#233,#232);
#235=CURVE_STYLE('',#74,POSITIVE_LENGTH_MEASURE(2.E-2),#8);
#236=PRESENTATION_STYLE_ASSIGNMENT((#235));
#237=STYLED_ITEM('',(#236),#234);
#238=CARTESIAN_POINT('',(0.E0,0.E0,-4.2E1));
#239=DIRECTION('',(0.E0,0.E0,-1.E0));
#240=DIRECTION('',(1.E0,0.E0,0.E0));
#241=AXIS2_PLACEMENT_3D('',#238,#239,#240);
#243=CURVE_STYLE('',#74,POSITIVE_LENGTH_MEASURE(2.E-2),#8);
#244=PRESENTATION_STYLE_ASSIGNMENT((#243));
#245=STYLED_ITEM('',(#244),#242);
#246=CARTESIAN_POINT('',(0.E0,0.E0,-4.2E1));
#247=DIRECTION('',(0.E0,0.E0,-1.E0));
#248=DIRECTION('',(-1.E0,0.E0,0.E0));
#249=AXIS2_PLACEMENT_3D('',#246,#247,#248);
#251=CURVE_STYLE('',#74,POSITIVE_LENGTH_MEASURE(2.E-2),#8);
#252=PRESENTATION_STYLE_ASSIGNMENT((#251));
#253=STYLED_ITEM('',(#252),#250);
#254=CARTESIAN_POINT('',(0.E0,0.E0,-4.2E1));
#255=DIRECTION('',(0.E0,0.E0,-1.E0));
#256=DIRECTION('',(-1.E0,0.E0,0.E0));
#257=AXIS2_PLACEMENT_3D('',#254,#255,#256);
#259=CURVE_STYLE('',#74,POSITIVE_LENGTH_MEASURE(2.E-2),#8);
#260=PRESENTATION_STYLE_ASSIGNMENT((#259));
#261=STYLED_ITEM('',(#260),#258);
#262=CARTESIAN_POINT('',(0.E0,0.E0,-4.2E1));
#263=DIRECTION('',(0.E0,0.E0,-1.E0));
#264=DIRECTION('',(1.E0,0.E0,0.E0));
#265=AXIS2_PLACEMENT_3D('',#262,#263,#264);
#267=CURVE_STYLE('',#74,POSITIVE_LENGTH_MEASURE(2.E-2),#8);
#268=PRESENTATION_STYLE_ASSIGNMENT((#267));
#269=STYLED_ITEM('',(#268),#266);
#270=DIRECTION('',(0.E0,0.E0,-1.E0));
#271=VECTOR('',#270,1.E1);
#272=CARTESIAN_POINT('',(-1.E0,0.E0,-4.2E1));
#273=LINE('',#272,#271);
#274=CURVE_STYLE('',#74,POSITIVE_LENGTH_MEASURE(2.E-2),#8);
#275=PRESENTATION_STYLE_ASSIGNMENT((#274));
#276=STYLED_ITEM('',(#275),#273);
#277=DIRECTION('',(0.E0,0.E0,-1.E0));
#278=VECTOR('',#277,1.E1);
#279=CARTESIAN_POINT('',(1.E0,0.E0,-4.2E1));
#280=LINE('',#279,#278);
#281=CURVE_STYLE('',#74,POSITIVE_LENGTH_MEASURE(2.E-2),#8);
#282=PRESENTATION_STYLE_ASSIGNMENT((#281));
#283=STYLED_ITEM('',(#282),#280);
#284=CARTESIAN_POINT('',(0.E0,0.E0,-5.2E1));
#285=DIRECTION('',(0.E0,0.E0,-1.E0));
#286=DIRECTION('',(-1.E0,0.E0,0.E0));
#287=AXIS2_PLACEMENT_3D('',#284,#285,#286);
#289=CURVE_STYLE('',#74,POSITIVE_LENGTH_MEASURE(2.E-2),#8);
#290=PRESENTATION_STYLE_ASSIGNMENT((#289));
#291=STYLED_ITEM('',(#290),#288);
#292=CARTESIAN_POINT('',(0.E0,0.E0,-5.2E1));
#293=DIRECTION('',(0.E0,0.E0,-1.E0));
#294=DIRECTION('',(1.E0,0.E0,0.E0));
#295=AXIS2_PLACEMENT_3D('',#292,#293,#294);
#297=CURVE_STYLE('',#74,POSITIVE_LENGTH_MEASURE(2.E-2),#8);
#298=PRESENTATION_STYLE_ASSIGNMENT((#297));
#299=STYLED_ITEM('',(#298),#296);
#300=CARTESIAN_POINT('',(-1.249999999114E1,0.E0,1.8E1));
#301=CARTESIAN_POINT('',(1.249999999114E1,0.E0,1.8E1));
#302=VERTEX_POINT('',#300);
#303=VERTEX_POINT('',#301);
#304=CARTESIAN_POINT('',(-1.4E1,0.E0,1.65E1));
#305=CARTESIAN_POINT('',(1.4E1,0.E0,1.65E1));
#306=VERTEX_POINT('',#304);
#307=VERTEX_POINT('',#305);
#308=CARTESIAN_POINT('',(1.5E1,0.E0,-4.1E1));
#309=CARTESIAN_POINT('',(-1.5E1,0.E0,-4.1E1));
#310=VERTEX_POINT('',#308);
#311=VERTEX_POINT('',#309);
#312=CARTESIAN_POINT('',(1.4E1,0.E0,5.362541234106E-6));
#313=CARTESIAN_POINT('',(-1.4E1,0.E0,5.362541234106E-6));
#314=VERTEX_POINT('',#312);
#315=VERTEX_POINT('',#313);
#316=CARTESIAN_POINT('',(1.5E1,0.E0,-1.000002836657E0));
#317=CARTESIAN_POINT('',(-1.5E1,0.E0,-1.000002836657E0));
#318=VERTEX_POINT('',#316);
#319=VERTEX_POINT('',#317);
#320=CARTESIAN_POINT('',(1.4E1,0.E0,-4.2E1));
#321=CARTESIAN_POINT('',(-1.4E1,0.E0,-4.2E1));
#322=VERTEX_POINT('',#320);
#323=VERTEX_POINT('',#321);
#324=CARTESIAN_POINT('',(1.4E1,0.E0,-4.1E1));
#325=CARTESIAN_POINT('',(-1.4E1,0.E0,-4.1E1));
#326=VERTEX_POINT('',#324);
#327=VERTEX_POINT('',#325);
#328=CARTESIAN_POINT('',(-1.E0,0.E0,-5.2E1));
#329=CARTESIAN_POINT('',(1.E0,0.E0,-5.2E1));
#330=VERTEX_POINT('',#328);
#331=VERTEX_POINT('',#329);
#332=CARTESIAN_POINT('',(-1.E0,0.E0,-4.2E1));
#333=CARTESIAN_POINT('',(1.E0,0.E0,-4.2E1));
#334=VERTEX_POINT('',#332);
#335=VERTEX_POINT('',#333);
#336=CARTESIAN_POINT('',(0.E0,0.E0,1.8E1));
#337=DIRECTION('',(0.E0,0.E0,1.E0));
#338=DIRECTION('',(1.E0,0.E0,0.E0));
#339=AXIS2_PLACEMENT_3D('',#336,#337,#338);
#340=PLANE('',#339);
#342=ORIENTED_EDGE('',*,*,#341,.F.);
#344=ORIENTED_EDGE('',*,*,#343,.F.);
#345=EDGE_LOOP('',(#342,#344));
#346=FACE_OUTER_BOUND('',#345,.F.);
#347=ADVANCED_FACE('',(#346),#340,.T.);
#348=CARTESIAN_POINT('',(0.E0,0.E0,1.65E1));
#349=DIRECTION('',(0.E0,0.E0,1.E0));
#350=DIRECTION('',(-9.999885887971E-1,4.777266531815E-3,0.E0));
#351=AXIS2_PLACEMENT_3D('',#348,#349,#350);
#352=TOROIDAL_SURFACE('',#351,1.25E1,1.5E0);
#353=ORIENTED_EDGE('',*,*,#341,.T.);
#355=ORIENTED_EDGE('',*,*,#354,.T.);
#357=ORIENTED_EDGE('',*,*,#356,.F.);
#359=ORIENTED_EDGE('',*,*,#358,.F.);
#360=EDGE_LOOP('',(#353,#355,#357,#359));
#361=FACE_OUTER_BOUND('',#360,.F.);
#362=ADVANCED_FACE('',(#361),#352,.T.);
#363=CARTESIAN_POINT('',(0.E0,0.E0,1.65E1));
#364=DIRECTION('',(0.E0,0.E0,1.E0));
#365=DIRECTION('',(9.999885887971E-1,-4.777266531815E-3,0.E0));
#366=AXIS2_PLACEMENT_3D('',#363,#364,#365);
#367=TOROIDAL_SURFACE('',#366,1.25E1,1.5E0);
#368=ORIENTED_EDGE('',*,*,#343,.T.);
#369=ORIENTED_EDGE('',*,*,#358,.T.);
#371=ORIENTED_EDGE('',*,*,#370,.F.);
#372=ORIENTED_EDGE('',*,*,#354,.F.);
#373=EDGE_LOOP('',(#368,#369,#371,#372));
#374=FACE_OUTER_BOUND('',#373,.F.);
#375=ADVANCED_FACE('',(#374),#367,.T.);
#376=CARTESIAN_POINT('',(0.E0,0.E0,0.E0));
#377=DIRECTION('',(0.E0,0.E0,1.E0));
#378=DIRECTION('',(1.E0,0.E0,0.E0));
#379=AXIS2_PLACEMENT_3D('',#376,#377,#378);
#380=CYLINDRICAL_SURFACE('',#379,1.4E1);
#382=ORIENTED_EDGE('',*,*,#381,.F.);
#384=ORIENTED_EDGE('',*,*,#383,.T.);
#385=ORIENTED_EDGE('',*,*,#370,.T.);
#387=ORIENTED_EDGE('',*,*,#386,.F.);
#388=EDGE_LOOP('',(#382,#384,#385,#387));
#389=FACE_OUTER_BOUND('',#388,.F.);
#390=ADVANCED_FACE('',(#389),#380,.T.);
#391=CARTESIAN_POINT('',(1.154631945610E-14,0.E0,-5.000048812463E-1));
#392=DIRECTION('',(0.E0,0.E0,-1.E0));
#393=DIRECTION('',(0.E0,-1.E0,0.E0));
#394=AXIS2_PLACEMENT_3D('',#391,#392,#393);
#395=CONICAL_SURFACE('',#394,1.450001043531E1,4.500001097325E1);
#396=ORIENTED_EDGE('',*,*,#381,.T.);
#398=ORIENTED_EDGE('',*,*,#397,.T.);
#400=ORIENTED_EDGE('',*,*,#399,.F.);
#402=ORIENTED_EDGE('',*,*,#401,.F.);
#403=EDGE_LOOP('',(#396,#398,#400,#402));
#404=FACE_OUTER_BOUND('',#403,.F.);
#405=ADVANCED_FACE('',(#404),#395,.T.);
#406=CARTESIAN_POINT('',(2.042810365310E-14,0.E0,-5.000048812462E-1));
#407=DIRECTION('',(0.E0,0.E0,-1.E0));
#408=DIRECTION('',(0.E0,-1.E0,0.E0));
#409=AXIS2_PLACEMENT_3D('',#406,#407,#408);
#410=CONICAL_SURFACE('',#409,1.450001043531E1,4.500001097325E1);
#412=ORIENTED_EDGE('',*,*,#411,.T.);
#413=ORIENTED_EDGE('',*,*,#401,.T.);
#415=ORIENTED_EDGE('',*,*,#414,.F.);
#416=ORIENTED_EDGE('',*,*,#397,.F.);
#417=EDGE_LOOP('',(#412,#413,#415,#416));
#418=FACE_OUTER_BOUND('',#417,.F.);
#419=ADVANCED_FACE('',(#418),#410,.T.);
#420=CARTESIAN_POINT('',(0.E0,0.E0,0.E0));
#421=DIRECTION('',(0.E0,0.E0,1.E0));
#422=DIRECTION('',(1.E0,0.E0,0.E0));
#423=AXIS2_PLACEMENT_3D('',#420,#421,#422);
#424=CYLINDRICAL_SURFACE('',#423,1.4E1);
#425=ORIENTED_EDGE('',*,*,#411,.F.);
#426=ORIENTED_EDGE('',*,*,#386,.T.);
#427=ORIENTED_EDGE('',*,*,#356,.T.);
#428=ORIENTED_EDGE('',*,*,#383,.F.);
#429=EDGE_LOOP('',(#425,#426,#427,#428));
#430=FACE_OUTER_BOUND('',#429,.F.);
#431=ADVANCED_FACE('',(#430),#424,.T.);
#432=CARTESIAN_POINT('',(0.E0,0.E0,0.E0));
#433=DIRECTION('',(0.E0,0.E0,-1.E0));
#434=DIRECTION('',(1.E0,0.E0,0.E0));
#435=AXIS2_PLACEMENT_3D('',#432,#433,#434);
#436=CYLINDRICAL_SURFACE('',#435,1.5E1);
#437=ORIENTED_EDGE('',*,*,#414,.T.);
#439=ORIENTED_EDGE('',*,*,#438,.T.);
#441=ORIENTED_EDGE('',*,*,#440,.T.);
#443=ORIENTED_EDGE('',*,*,#442,.F.);
#444=EDGE_LOOP('',(#437,#439,#441,#443));
#445=FACE_OUTER_BOUND('',#444,.F.);
#446=ADVANCED_FACE('',(#445),#436,.T.);
#447=CARTESIAN_POINT('',(0.E0,0.E0,0.E0));
#448=DIRECTION('',(0.E0,0.E0,-1.E0));
#449=DIRECTION('',(1.E0,0.E0,0.E0));
#450=AXIS2_PLACEMENT_3D('',#447,#448,#449);
#451=CYLINDRICAL_SURFACE('',#450,1.5E1);
#452=ORIENTED_EDGE('',*,*,#399,.T.);
#453=ORIENTED_EDGE('',*,*,#442,.T.);
#455=ORIENTED_EDGE('',*,*,#454,.T.);
#456=ORIENTED_EDGE('',*,*,#438,.F.);
#457=EDGE_LOOP('',(#452,#453,#455,#456));
#458=FACE_OUTER_BOUND('',#457,.F.);
#459=ADVANCED_FACE('',(#458),#451,.T.);
#460=CARTESIAN_POINT('',(0.E0,0.E0,-4.1E1));
#461=DIRECTION('',(0.E0,0.E0,-1.E0));
#462=DIRECTION('',(1.E0,0.E0,0.E0));
#463=AXIS2_PLACEMENT_3D('',#460,#461,#462);
#464=PLANE('',#463);
#465=ORIENTED_EDGE('',*,*,#440,.F.);
#466=ORIENTED_EDGE('',*,*,#454,.F.);
#467=EDGE_LOOP('',(#465,#466));
#468=FACE_OUTER_BOUND('',#467,.F.);
#470=ORIENTED_EDGE('',*,*,#469,.T.);
#472=ORIENTED_EDGE('',*,*,#471,.T.);
#473=EDGE_LOOP('',(#470,#472));
#474=FACE_BOUND('',#473,.F.);
#475=ADVANCED_FACE('',(#468,#474),#464,.T.);
#476=CARTESIAN_POINT('',(0.E0,0.E0,-4.1E1));
#477=DIRECTION('',(0.E0,0.E0,-1.E0));
#478=DIRECTION('',(1.E0,0.E0,0.E0));
#479=AXIS2_PLACEMENT_3D('',#476,#477,#478);
#480=CYLINDRICAL_SURFACE('',#479,1.4E1);
#481=ORIENTED_EDGE('',*,*,#469,.F.);
#483=ORIENTED_EDGE('',*,*,#482,.T.);
#485=ORIENTED_EDGE('',*,*,#484,.T.);
#487=ORIENTED_EDGE('',*,*,#486,.F.);
#488=EDGE_LOOP('',(#481,#483,#485,#487));
#489=FACE_OUTER_BOUND('',#488,.F.);
#490=ADVANCED_FACE('',(#489),#480,.T.);
#491=CARTESIAN_POINT('',(0.E0,0.E0,-4.1E1));
#492=DIRECTION('',(0.E0,0.E0,-1.E0));
#493=DIRECTION('',(1.E0,0.E0,0.E0));
#494=AXIS2_PLACEMENT_3D('',#491,#492,#493);
#495=CYLINDRICAL_SURFACE('',#494,1.4E1);
#496=ORIENTED_EDGE('',*,*,#471,.F.);
#497=ORIENTED_EDGE('',*,*,#486,.T.);
#499=ORIENTED_EDGE('',*,*,#498,.T.);
#500=ORIENTED_EDGE('',*,*,#482,.F.);
#501=EDGE_LOOP('',(#496,#497,#499,#500));
#502=FACE_OUTER_BOUND('',#501,.F.);
#503=ADVANCED_FACE('',(#502),#495,.T.);
#504=CARTESIAN_POINT('',(0.E0,0.E0,-4.2E1));
#505=DIRECTION('',(0.E0,0.E0,-1.E0));
#506=DIRECTION('',(1.E0,0.E0,0.E0));
#507=AXIS2_PLACEMENT_3D('',#504,#505,#506);
#508=PLANE('',#507);
#509=ORIENTED_EDGE('',*,*,#484,.F.);
#510=ORIENTED_EDGE('',*,*,#498,.F.);
#511=EDGE_LOOP('',(#509,#510));
#512=FACE_OUTER_BOUND('',#511,.F.);
#514=ORIENTED_EDGE('',*,*,#513,.T.);
#516=ORIENTED_EDGE('',*,*,#515,.T.);
#517=EDGE_LOOP('',(#514,#516));
#518=FACE_BOUND('',#517,.F.);
#519=ADVANCED_FACE('',(#512,#518),#508,.T.);
#520=CARTESIAN_POINT('',(0.E0,0.E0,-4.2E1));
#521=DIRECTION('',(0.E0,0.E0,-1.E0));
#522=DIRECTION('',(-1.E0,0.E0,0.E0));
#523=AXIS2_PLACEMENT_3D('',#520,#521,#522);
#524=CYLINDRICAL_SURFACE('',#523,1.E0);
#525=ORIENTED_EDGE('',*,*,#513,.F.);
#527=ORIENTED_EDGE('',*,*,#526,.T.);
#529=ORIENTED_EDGE('',*,*,#528,.T.);
#531=ORIENTED_EDGE('',*,*,#530,.F.);
#532=EDGE_LOOP('',(#525,#527,#529,#531));
#533=FACE_OUTER_BOUND('',#532,.F.);
#534=ADVANCED_FACE('',(#533),#524,.T.);
#535=FILL_AREA_STYLE_COLOUR('',#55);
#536=FILL_AREA_STYLE('',(#535));
#537=SURFACE_STYLE_FILL_AREA(#536);
#538=SURFACE_SIDE_STYLE('',(#537));
#539=SURFACE_STYLE_USAGE(.POSITIVE.,#538);
#540=FILL_AREA_STYLE_COLOUR('',#8);
#541=FILL_AREA_STYLE('',(#540));
#542=SURFACE_STYLE_FILL_AREA(#541);
#543=SURFACE_SIDE_STYLE('',(#542));
#544=SURFACE_STYLE_USAGE(.NEGATIVE.,#543);
#545=PRESENTATION_STYLE_ASSIGNMENT((#539,#544));
#546=OVER_RIDING_STYLED_ITEM('',(#545),#534,#68);
#547=CARTESIAN_POINT('',(0.E0,0.E0,-4.2E1));
#548=DIRECTION('',(0.E0,0.E0,-1.E0));
#549=DIRECTION('',(-1.E0,0.E0,0.E0));
#550=AXIS2_PLACEMENT_3D('',#547,#548,#549);
#551=CYLINDRICAL_SURFACE('',#550,1.E0);
#552=ORIENTED_EDGE('',*,*,#515,.F.);
#553=ORIENTED_EDGE('',*,*,#530,.T.);
#555=ORIENTED_EDGE('',*,*,#554,.T.);
#556=ORIENTED_EDGE('',*,*,#526,.F.);
#557=EDGE_LOOP('',(#552,#553,#555,#556));
#558=FACE_OUTER_BOUND('',#557,.F.);
#559=ADVANCED_FACE('',(#558),#551,.T.);
#560=FILL_AREA_STYLE_COLOUR('',#55);
#561=FILL_AREA_STYLE('',(#560));
#562=SURFACE_STYLE_FILL_AREA(#561);
#563=SURFACE_SIDE_STYLE('',(#562));
#564=SURFACE_STYLE_USAGE(.POSITIVE.,#563);
#565=FILL_AREA_STYLE_COLOUR('',#8);
#566=FILL_AREA_STYLE('',(#565));
#567=SURFACE_STYLE_FILL_AREA(#566);
#568=SURFACE_SIDE_STYLE('',(#567));
#569=SURFACE_STYLE_USAGE(.NEGATIVE.,#568);
#570=PRESENTATION_STYLE_ASSIGNMENT((#564,#569));
#571=OVER_RIDING_STYLED_ITEM('',(#570),#559,#68);
#572=CARTESIAN_POINT('',(0.E0,0.E0,-5.2E1));
#573=DIRECTION('',(0.E0,0.E0,-1.E0));
#574=DIRECTION('',(-1.E0,0.E0,0.E0));
#575=AXIS2_PLACEMENT_3D('',#572,#573,#574);
#576=PLANE('',#575);
#577=ORIENTED_EDGE('',*,*,#528,.F.);
#578=ORIENTED_EDGE('',*,*,#554,.F.);
#579=EDGE_LOOP('',(#577,#578));
#580=FACE_OUTER_BOUND('',#579,.F.);
#581=ADVANCED_FACE('',(#580),#576,.T.);
#582=FILL_AREA_STYLE_COLOUR('',#55);
#583=FILL_AREA_STYLE('',(#582));
#584=SURFACE_STYLE_FILL_AREA(#583);
#585=SURFACE_SIDE_STYLE('',(#584));
#586=SURFACE_STYLE_USAGE(.POSITIVE.,#585);
#587=FILL_AREA_STYLE_COLOUR('',#8);
#588=FILL_AREA_STYLE('',(#587));
#589=SURFACE_STYLE_FILL_AREA(#588);
#590=SURFACE_SIDE_STYLE('',(#589));
#591=SURFACE_STYLE_USAGE(.NEGATIVE.,#590);
#592=PRESENTATION_STYLE_ASSIGNMENT((#586,#591));
#593=OVER_RIDING_STYLED_ITEM('',(#592),#581,#68);
#594=CLOSED_SHELL('',(#347,#362,#375,#390,#405,#419,#431,#446,#459,#475,#490,
#503,#519,#534,#559,#581));
#595=MANIFOLD_SOLID_BREP('',#594);
#596=FILL_AREA_STYLE_COLOUR('',#8);
#597=FILL_AREA_STYLE('',(#596));
#598=SURFACE_STYLE_FILL_AREA(#597);
#599=SURFACE_SIDE_STYLE('',(#598));
#600=SURFACE_STYLE_USAGE(.BOTH.,#599);
#601=PRESENTATION_STYLE_ASSIGNMENT((#600));
#68=STYLED_ITEM('',(#601),#595);
#602=(LENGTH_UNIT()NAMED_UNIT(*)SI_UNIT(.MILLI.,.METRE.));
#603=DIMENSIONAL_EXPONENTS(0.E0,0.E0,0.E0,0.E0,0.E0,0.E0,0.E0);
#604=(NAMED_UNIT(*)PLANE_ANGLE_UNIT()SI_UNIT($,.RADIAN.));
#605=PLANE_ANGLE_MEASURE_WITH_UNIT(PLANE_ANGLE_MEASURE(1.745329251994E-2),#604);
#606=(CONVERSION_BASED_UNIT('DEGREE',#605)NAMED_UNIT(#603)PLANE_ANGLE_UNIT());
#607=(NAMED_UNIT(*)SI_UNIT($,.STERADIAN.)SOLID_ANGLE_UNIT());
#608=UNCERTAINTY_MEASURE_WITH_UNIT(LENGTH_MEASURE(8.185028455192E-3),#602,
'closure',
'Maximum model space distance between geometric entities at asserted connectivities');
#609=(GEOMETRIC_REPRESENTATION_CONTEXT(3)GLOBAL_UNCERTAINTY_ASSIGNED_CONTEXT((
#608))GLOBAL_UNIT_ASSIGNED_CONTEXT((#602,#606,#607))REPRESENTATION_CONTEXT
('ID1','3'));
#611=MECHANICAL_DESIGN_GEOMETRIC_PRESENTATION_REPRESENTATION('',(#77,#85,#93,
#101,#109,#116,#124,#131,#138,#146,#153,#161,#169,#176,#184,#191,#199,#207,#215,
#223,#230,#237,#245,#253,#261,#269,#276,#283,#291,#299,#546,#571,#593,#68),
#609);
#612=APPLICATION_CONTEXT(
'CONFIGURATION CONTROLLED 3D DESIGNS OF MECHANICAL PARTS AND ASSEMBLIES');
#613=APPLICATION_PROTOCOL_DEFINITION('international standard',
'config_control_design',1994,#612);
#614=DESIGN_CONTEXT('',#612,'design');
#615=MECHANICAL_CONTEXT('',#612,'mechanical');
#616=PRODUCT('CAD1552','CAD1552','NOT SPECIFIED',(#615));
#617=PRODUCT_DEFINITION_FORMATION_WITH_SPECIFIED_SOURCE('2','LAST_VERSION',#616,
.MADE.);
#621=PRODUCT_CATEGORY('part','');
#622=PRODUCT_RELATED_PRODUCT_CATEGORY('detail','',(#616));
#623=PRODUCT_CATEGORY_RELATIONSHIP('','',#621,#622);
#624=SECURITY_CLASSIFICATION_LEVEL('unclassified');
#625=SECURITY_CLASSIFICATION('','',#624);
#626=CC_DESIGN_SECURITY_CLASSIFICATION(#625,(#617));
#627=APPROVAL_STATUS('approved');
#628=APPROVAL(#627,'');
#629=CC_DESIGN_APPROVAL(#628,(#625,#617,#618));
#630=CALENDAR_DATE(112,14,2);
#631=COORDINATED_UNIVERSAL_TIME_OFFSET(1,0,.AHEAD.);
#632=LOCAL_TIME(13,38,2.2E1,#631);
#633=DATE_AND_TIME(#630,#632);
#634=APPROVAL_DATE_TIME(#633,#628);
#635=DATE_TIME_ROLE('creation_date');
#636=CC_DESIGN_DATE_AND_TIME_ASSIGNMENT(#633,#635,(#618));
#637=DATE_TIME_ROLE('classification_date');
#638=CC_DESIGN_DATE_AND_TIME_ASSIGNMENT(#633,#637,(#625));
#639=PERSON('UNSPECIFIED','UNSPECIFIED',$,$,$,$);
#640=ORGANIZATION('UNSPECIFIED','UNSPECIFIED','UNSPECIFIED');
#641=PERSON_AND_ORGANIZATION(#639,#640);
#642=APPROVAL_ROLE('approver');
#643=APPROVAL_PERSON_ORGANIZATION(#641,#628,#642);
#644=PERSON_AND_ORGANIZATION_ROLE('creator');
#645=CC_DESIGN_PERSON_AND_ORGANIZATION_ASSIGNMENT(#641,#644,(#617,#618));
#646=PERSON_AND_ORGANIZATION_ROLE('design_supplier');
#647=CC_DESIGN_PERSON_AND_ORGANIZATION_ASSIGNMENT(#641,#646,(#617));
#648=PERSON_AND_ORGANIZATION_ROLE('classification_officer');
#649=CC_DESIGN_PERSON_AND_ORGANIZATION_ASSIGNMENT(#641,#648,(#625));
#650=PERSON_AND_ORGANIZATION_ROLE('design_owner');
#651=CC_DESIGN_PERSON_AND_ORGANIZATION_ASSIGNMENT(#641,#650,(#616));
#73=CIRCLE('',#72,1.249999999114E1);
#82=CIRCLE('',#81,1.249999999114E1);
#90=CIRCLE('',#89,1.5E0);
#98=CIRCLE('',#97,1.5E0);
#106=CIRCLE('',#105,1.4E1);
#121=CIRCLE('',#120,1.4E1);
#143=CIRCLE('',#142,1.4E1);
#158=CIRCLE('',#157,1.4E1);
#166=CIRCLE('',#165,1.5E1);
#181=CIRCLE('',#180,1.5E1);
#196=CIRCLE('',#195,1.5E1);
#204=CIRCLE('',#203,1.5E1);
#212=CIRCLE('',#211,1.4E1);
#220=CIRCLE('',#219,1.4E1);
#242=CIRCLE('',#241,1.4E1);
#250=CIRCLE('',#249,1.4E1);
#258=CIRCLE('',#257,1.E0);
#266=CIRCLE('',#265,1.E0);
#288=CIRCLE('',#287,1.E0);
#296=CIRCLE('',#295,1.E0);
#341=EDGE_CURVE('',#302,#303,#73,.T.);
#343=EDGE_CURVE('',#303,#302,#82,.T.);
#354=EDGE_CURVE('',#303,#307,#98,.T.);
#356=EDGE_CURVE('',#306,#307,#158,.T.);
#358=EDGE_CURVE('',#302,#306,#90,.T.);
#370=EDGE_CURVE('',#307,#306,#121,.T.);
#381=EDGE_CURVE('',#314,#315,#106,.T.);
#383=EDGE_CURVE('',#314,#307,#113,.T.);
#386=EDGE_CURVE('',#315,#306,#150,.T.);
#397=EDGE_CURVE('',#315,#319,#135,.T.);
#399=EDGE_CURVE('',#318,#319,#181,.T.);
#401=EDGE_CURVE('',#314,#318,#128,.T.);
#411=EDGE_CURVE('',#315,#314,#143,.T.);
#414=EDGE_CURVE('',#319,#318,#166,.T.);
#438=EDGE_CURVE('',#318,#310,#173,.T.);
#440=EDGE_CURVE('',#310,#311,#196,.T.);
#442=EDGE_CURVE('',#319,#311,#188,.T.);
#454=EDGE_CURVE('',#311,#310,#204,.T.);
#469=EDGE_CURVE('',#326,#327,#212,.T.);
#471=EDGE_CURVE('',#327,#326,#220,.T.);
#482=EDGE_CURVE('',#326,#322,#227,.T.);
#484=EDGE_CURVE('',#322,#323,#242,.T.);
#486=EDGE_CURVE('',#327,#323,#234,.T.);
#498=EDGE_CURVE('',#323,#322,#250,.T.);
#513=EDGE_CURVE('',#334,#335,#258,.T.);
#515=EDGE_CURVE('',#335,#334,#266,.T.);
#526=EDGE_CURVE('',#334,#330,#273,.T.);
#528=EDGE_CURVE('',#330,#331,#288,.T.);
#530=EDGE_CURVE('',#335,#331,#280,.T.);
#554=EDGE_CURVE('',#331,#330,#296,.T.);
#610=ADVANCED_BREP_SHAPE_REPRESENTATION('',(#595),#609);
#618=PRODUCT_DEFINITION('design','',#617,#614);
#619=PRODUCT_DEFINITION_SHAPE('','SHAPE FOR CAD1552.',#618);
#620=SHAPE_DEFINITION_REPRESENTATION(#619,#610);
ENDSEC;
END-ISO-10303-21;
