ISO-10303-21;
HEADER;
FILE_DESCRIPTION((''),'2;1');
FILE_NAME('PRT0001','2012-03-15T',('dhelisch'),(''),
'PRO/ENGINEER BY PARAMETRIC TECHNOLOGY CORPORATION, 2007250',
'PRO/ENGINEER BY PARAMETRIC TECHNOLOGY CORPORATION, 2007250','');
FILE_SCHEMA(('CONFIG_CONTROL_DESIGN'));
ENDSEC;
DATA;
#1=DRAUGHTING_PRE_DEFINED_COLOUR('black');
#2=COLOUR_RGB('',0.E0,0.E0,1.96E-1);
#3=COLOUR_RGB('',0.E0,0.E0,3.14E-1);
#4=COLOUR_RGB('',0.E0,0.E0,6.E-1);
#5=COLOUR_RGB('',0.E0,0.E0,8.E-1);
#6=COLOUR_RGB('',0.E0,1.96E-1,0.E0);
#7=COLOUR_RGB('',0.E0,3.14E-1,0.E0);
#8=COLOUR_RGB('',0.E0,5.490196078431E-1,1.E0);
#9=COLOUR_RGB('',0.E0,6.E-1,0.E0);
#10=COLOUR_RGB('',0.E0,6.E-1,4.E-1);
#11=COLOUR_RGB('',0.E0,8.E-1,0.E0);
#12=DRAUGHTING_PRE_DEFINED_COLOUR('green');
#13=COLOUR_RGB('',1.176470588235E-2,1.176470588235E-2,1.E0);
#14=COLOUR_RGB('',7.8E-2,7.8E-2,7.8E-2);
#15=COLOUR_RGB('',1.18E-1,1.18E-1,4.71E-1);
#16=COLOUR_RGB('',1.57E-1,1.57E-1,1.57E-1);
#17=COLOUR_RGB('',1.96E-1,0.E0,0.E0);
#18=COLOUR_RGB('',1.96E-1,0.E0,1.96E-1);
#19=COLOUR_RGB('',1.96E-1,5.88E-1,1.96E-1);
#20=COLOUR_RGB('',2.E-1,2.E-1,0.E0);
#21=COLOUR_RGB('',2.E-1,2.E-1,1.E0);
#22=COLOUR_RGB('',2.E-1,1.E0,2.E-1);
#23=COLOUR_RGB('',2.039215686275E-1,6.274509803922E-1,9.372549019608E-1);
#24=COLOUR_RGB('',2.35E-1,2.35E-1,2.35E-1);
#25=COLOUR_RGB('',2.35E-1,2.35E-1,5.88E-1);
#26=COLOUR_RGB('',2.509803921569E-1,3.215686274510E-1,3.921568627451E-1);
#27=COLOUR_RGB('',3.09804E-1,5.21569E-1,1.41176E-1);
#28=COLOUR_RGB('',3.09804E-1,1.E0,1.E0);
#29=COLOUR_RGB('',3.14E-1,3.14E-1,3.14E-1);
#30=COLOUR_RGB('',3.27543E-1,1.E0,6.33116E-1);
#31=COLOUR_RGB('',3.92E-1,0.E0,0.E0);
#32=COLOUR_RGB('',3.92E-1,0.E0,3.92E-1);
#33=COLOUR_RGB('',3.92E-1,3.92E-1,3.92E-1);
#34=COLOUR_RGB('',3.92E-1,3.92E-1,8.63E-1);
#35=COLOUR_RGB('',3.92E-1,5.88E-1,3.92E-1);
#36=COLOUR_RGB('',3.92E-1,5.88E-1,8.63E-1);
#37=COLOUR_RGB('',4.E-1,4.E-1,0.E0);
#38=COLOUR_RGB('',4.E-1,4.E-1,1.E0);
#39=COLOUR_RGB('',4.E-1,1.E0,4.E-1);
#40=COLOUR_RGB('',4.117647058824E-1,0.E0,2.196078431373E-1);
#41=COLOUR_RGB('',4.23529E-1,3.17647E-1,1.96078E-1);
#42=COLOUR_RGB('',5.01961E-1,1.E0,5.01961E-1);
#43=COLOUR_RGB('',5.13725E-1,5.13725E-1,5.13725E-1);
#44=COLOUR_RGB('',5.5E-1,5.6E-1,7.E-1);
#45=COLOUR_RGB('',5.803921568627E-1,0.E0,1.607843137255E-1);
#46=COLOUR_RGB('',5.88E-1,5.88E-1,5.88E-1);
#47=COLOUR_RGB('',5.88E-1,7.84E-1,5.88E-1);
#48=COLOUR_RGB('',6.E-1,0.E0,0.E0);
#49=COLOUR_RGB('',6.E-1,6.E-1,0.E0);
#50=COLOUR_RGB('',6.E-1,6.E-1,1.E0);
#51=COLOUR_RGB('',6.E-1,7.019607843137E-1,8.E-1);
#52=COLOUR_RGB('',6.E-1,1.E0,6.E-1);
#53=COLOUR_RGB('',6.2E-1,3.1E-1,6.5E-1);
#54=COLOUR_RGB('',6.66667E-1,5.05882E-1,2.15686E-1);
#55=COLOUR_RGB('',6.784313725490E-1,7.686274509804E-1,8.117647058824E-1);
#56=COLOUR_RGB('',6.8E-1,8.5E-1,1.E0);
#57=COLOUR_RGB('',6.82353E-1,5.09804E-1,3.17647E-1);
#58=COLOUR_RGB('',7.01961E-1,7.01961E-1,7.01961E-1);
#59=COLOUR_RGB('',7.01961E-1,1.E0,1.E0);
#60=COLOUR_RGB('',8.E-1,0.E0,0.E0);
#61=COLOUR_RGB('',8.E-1,8.E-1,1.E0);
#62=COLOUR_RGB('',8.E-1,9.21569E-1,0.E0);
#63=COLOUR_RGB('',8.E-1,1.E0,8.E-1);
#64=COLOUR_RGB('',8.23529E-1,6.15686E-1,3.84314E-1);
#65=COLOUR_RGB('',8.784E-1,9.49E-1,1.E0);
#66=COLOUR_RGB('',8.941176470588E-1,9.098039215686E-1,7.882352941176E-1);
#67=COLOUR_RGB('',9.01961E-1,4.11765E-1,4.11765E-1);
#68=COLOUR_RGB('',9.8E-1,3.92E-1,0.E0);
#69=COLOUR_RGB('',9.803921568627E-1,5.411764705882E-1,3.411764705882E-1);
#70=COLOUR_RGB('',9.8E-1,5.88E-1,0.E0);
#71=COLOUR_RGB('',9.8E-1,7.84E-1,0.E0);
#72=DRAUGHTING_PRE_DEFINED_COLOUR('red');
#73=DRAUGHTING_PRE_DEFINED_COLOUR('magenta');
#74=COLOUR_RGB('',1.E0,2.E-1,2.E-1);
#75=COLOUR_RGB('',1.E0,3.7E-1,3.8E-1);
#76=COLOUR_RGB('',1.E0,5.019607843137E-1,2.509803921569E-1);
#77=COLOUR_RGB('',1.E0,6.E-1,2.E-1);
#78=COLOUR_RGB('',1.E0,6.E-1,6.E-1);
#79=COLOUR_RGB('',1.E0,8.E-1,8.E-1);
#80=COLOUR_RGB('',1.E0,8.588235294118E-1,2.196078431373E-1);
#81=DRAUGHTING_PRE_DEFINED_COLOUR('yellow');
#82=COLOUR_RGB('',1.E0,1.E0,3.01961E-1);
#83=COLOUR_RGB('',1.E0,1.E0,5.01961E-1);
#84=DRAUGHTING_PRE_DEFINED_COLOUR('white');
#86=CARTESIAN_POINT('',(2.175000258355E1,0.E0,0.E0));
#87=DIRECTION('',(-1.E0,0.E0,0.E0));
#88=DIRECTION('',(0.E0,0.E0,1.E0));
#89=AXIS2_PLACEMENT_3D('',#86,#87,#88);
#91=DRAUGHTING_PRE_DEFINED_CURVE_FONT('continuous');
#92=CURVE_STYLE('',#91,POSITIVE_LENGTH_MEASURE(2.E-2),#10);
#93=PRESENTATION_STYLE_ASSIGNMENT((#92));
#94=STYLED_ITEM('',(#93),#90);
#95=CARTESIAN_POINT('',(4.099999864689E1,0.E0,0.E0));
#96=DIRECTION('',(-1.E0,0.E0,0.E0));
#97=DIRECTION('',(0.E0,0.E0,1.E0));
#98=AXIS2_PLACEMENT_3D('',#95,#96,#97);
#100=CURVE_STYLE('',#91,POSITIVE_LENGTH_MEASURE(2.E-2),#10);
#101=PRESENTATION_STYLE_ASSIGNMENT((#100));
#102=STYLED_ITEM('',(#101),#99);
#103=DIRECTION('',(7.071067446497E-1,-8.464431647848E-12,-7.071068177234E-1));
#104=VECTOR('',#103,3.535533905928E0);
#105=CARTESIAN_POINT('',(1.925000077508E1,1.795587854035E-10,1.500000077505E1));
#106=LINE('',#105,#104);
#107=CURVE_STYLE('',#91,POSITIVE_LENGTH_MEASURE(2.E-2),#10);
#108=PRESENTATION_STYLE_ASSIGNMENT((#107));
#109=STYLED_ITEM('',(#108),#106);
#110=CARTESIAN_POINT('',(1.924999886792E1,0.E0,0.E0));
#111=DIRECTION('',(-1.E0,0.E0,0.E0));
#112=DIRECTION('',(0.E0,0.E0,1.E0));
#113=AXIS2_PLACEMENT_3D('',#110,#111,#112);
#115=CURVE_STYLE('',#91,POSITIVE_LENGTH_MEASURE(2.E-2),#10);
#116=PRESENTATION_STYLE_ASSIGNMENT((#115));
#117=STYLED_ITEM('',(#116),#114);
#118=CARTESIAN_POINT('',(1.924999886792E1,0.E0,0.E0));
#119=DIRECTION('',(-1.E0,0.E0,0.E0));
#120=DIRECTION('',(0.E0,0.E0,-1.E0));
#121=AXIS2_PLACEMENT_3D('',#118,#119,#120);
#123=CURVE_STYLE('',#91,POSITIVE_LENGTH_MEASURE(2.E-2),#10);
#124=PRESENTATION_STYLE_ASSIGNMENT((#123));
#125=STYLED_ITEM('',(#124),#122);
#126=DIRECTION('',(-1.E0,9.327775655776E-12,4.026211758170E-8));
#127=VECTOR('',#126,1.925000077508E1);
#128=CARTESIAN_POINT('',(1.925000077508E1,-1.795584639971E-10,
-1.500000077505E1));
#129=LINE('',#128,#127);
#130=CURVE_STYLE('',#91,POSITIVE_LENGTH_MEASURE(2.E-2),#10);
#131=PRESENTATION_STYLE_ASSIGNMENT((#130));
#132=STYLED_ITEM('',(#131),#129);
#133=DIRECTION('',(-1.E0,-9.327792352210E-12,-4.026211758170E-8));
#134=VECTOR('',#133,1.925000077508E1);
#135=CARTESIAN_POINT('',(1.925000077508E1,1.795587854035E-10,1.500000077505E1));
#136=LINE('',#135,#134);
#137=CURVE_STYLE('',#91,POSITIVE_LENGTH_MEASURE(2.E-2),#10);
#138=PRESENTATION_STYLE_ASSIGNMENT((#137));
#139=STYLED_ITEM('',(#138),#136);
#140=DIRECTION('',(7.071067446497E-1,8.464490008181E-12,7.071068177234E-1));
#141=VECTOR('',#140,3.535533905928E0);
#142=CARTESIAN_POINT('',(1.925000077508E1,-1.795584639971E-10,
-1.500000077505E1));
#143=LINE('',#142,#141);
#144=CURVE_STYLE('',#91,POSITIVE_LENGTH_MEASURE(2.E-2),#10);
#145=PRESENTATION_STYLE_ASSIGNMENT((#144));
#146=STYLED_ITEM('',(#145),#143);
#147=CARTESIAN_POINT('',(2.175000258355E1,0.E0,0.E0));
#148=DIRECTION('',(-1.E0,0.E0,0.E0));
#149=DIRECTION('',(0.E0,0.E0,-1.E0));
#150=AXIS2_PLACEMENT_3D('',#147,#148,#149);
#152=CURVE_STYLE('',#91,POSITIVE_LENGTH_MEASURE(2.E-2),#10);
#153=PRESENTATION_STYLE_ASSIGNMENT((#152));
#154=STYLED_ITEM('',(#153),#151);
#155=DIRECTION('',(-1.E0,-3.048171069823E-12,7.049511385114E-9));
#156=VECTOR('',#155,1.924999986432E1);
#157=CARTESIAN_POINT('',(4.100000051022E1,2.083097929986E-10,1.250000051017E1));
#158=LINE('',#157,#156);
#159=CURVE_STYLE('',#91,POSITIVE_LENGTH_MEASURE(2.E-2),#10);
#160=PRESENTATION_STYLE_ASSIGNMENT((#159));
#161=STYLED_ITEM('',(#160),#158);
#162=CARTESIAN_POINT('',(4.099999864689E1,0.E0,0.E0));
#163=DIRECTION('',(-1.E0,0.E0,0.E0));
#164=DIRECTION('',(0.E0,0.E0,-1.E0));
#165=AXIS2_PLACEMENT_3D('',#162,#163,#164);
#167=CURVE_STYLE('',#91,POSITIVE_LENGTH_MEASURE(2.E-2),#10);
#168=PRESENTATION_STYLE_ASSIGNMENT((#167));
#169=STYLED_ITEM('',(#168),#166);
#170=DIRECTION('',(-1.E0,3.048086250535E-12,-7.049511200558E-9));
#171=VECTOR('',#170,1.924999986432E1);
#172=CARTESIAN_POINT('',(4.100000051022E1,-2.083076324860E-10,
-1.250000051017E1));
#173=LINE('',#172,#171);
#174=CURVE_STYLE('',#91,POSITIVE_LENGTH_MEASURE(2.E-2),#10);
#175=PRESENTATION_STYLE_ASSIGNMENT((#174));
#176=STYLED_ITEM('',(#175),#173);
#177=DIRECTION('',(7.071067908069E-1,-3.928189224356E-12,7.071067715662E-1));
#178=VECTOR('',#177,3.535533905935E0);
#179=CARTESIAN_POINT('',(4.100000051022E1,-2.083076324860E-10,
-1.250000051017E1));
#180=LINE('',#179,#178);
#181=CURVE_STYLE('',#91,POSITIVE_LENGTH_MEASURE(2.E-2),#10);
#182=PRESENTATION_STYLE_ASSIGNMENT((#181));
#183=STYLED_ITEM('',(#182),#180);
#184=DIRECTION('',(7.071067908069E-1,3.928130507941E-12,-7.071067715662E-1));
#185=VECTOR('',#184,3.535533905935E0);
#186=CARTESIAN_POINT('',(4.100000051022E1,2.083097929986E-10,1.250000051017E1));
#187=LINE('',#186,#185);
#188=CURVE_STYLE('',#91,POSITIVE_LENGTH_MEASURE(2.E-2),#10);
#189=PRESENTATION_STYLE_ASSIGNMENT((#188));
#190=STYLED_ITEM('',(#189),#187);
#191=CARTESIAN_POINT('',(4.350000135544E1,0.E0,0.E0));
#192=DIRECTION('',(-1.E0,0.E0,0.E0));
#193=DIRECTION('',(0.E0,0.E0,-1.E0));
#194=AXIS2_PLACEMENT_3D('',#191,#192,#193);
#196=CURVE_STYLE('',#91,POSITIVE_LENGTH_MEASURE(2.E-2),#10);
#197=PRESENTATION_STYLE_ASSIGNMENT((#196));
#198=STYLED_ITEM('',(#197),#195);
#199=CARTESIAN_POINT('',(4.350000135544E1,0.E0,0.E0));
#200=DIRECTION('',(-1.E0,0.E0,0.E0));
#201=DIRECTION('',(0.E0,0.E0,1.E0));
#202=AXIS2_PLACEMENT_3D('',#199,#200,#201);
#204=CURVE_STYLE('',#91,POSITIVE_LENGTH_MEASURE(2.E-2),#10);
#205=PRESENTATION_STYLE_ASSIGNMENT((#204));
#206=STYLED_ITEM('',(#205),#203);
#207=CARTESIAN_POINT('',(4.35E1,0.E0,0.E0));
#208=DIRECTION('',(1.E0,0.E0,0.E0));
#209=DIRECTION('',(0.E0,1.E0,0.E0));
#210=AXIS2_PLACEMENT_3D('',#207,#208,#209);
#212=CURVE_STYLE('',#91,POSITIVE_LENGTH_MEASURE(2.E-2),#10);
#213=PRESENTATION_STYLE_ASSIGNMENT((#212));
#214=STYLED_ITEM('',(#213),#211);
#215=CARTESIAN_POINT('',(4.35E1,0.E0,0.E0));
#216=DIRECTION('',(1.E0,0.E0,0.E0));
#217=DIRECTION('',(0.E0,-1.E0,0.E0));
#218=AXIS2_PLACEMENT_3D('',#215,#216,#217);
#220=CURVE_STYLE('',#91,POSITIVE_LENGTH_MEASURE(2.E-2),#10);
#221=PRESENTATION_STYLE_ASSIGNMENT((#220));
#222=STYLED_ITEM('',(#221),#219);
#223=DIRECTION('',(1.E0,0.E0,0.E0));
#224=VECTOR('',#223,2.35E1);
#225=CARTESIAN_POINT('',(2.E1,9.E0,0.E0));
#226=LINE('',#225,#224);
#227=CURVE_STYLE('',#91,POSITIVE_LENGTH_MEASURE(2.E-2),#10);
#228=PRESENTATION_STYLE_ASSIGNMENT((#227));
#229=STYLED_ITEM('',(#228),#226);
#230=CARTESIAN_POINT('',(2.E1,0.E0,0.E0));
#231=DIRECTION('',(1.E0,0.E0,0.E0));
#232=DIRECTION('',(0.E0,1.E0,0.E0));
#233=AXIS2_PLACEMENT_3D('',#230,#231,#232);
#235=CURVE_STYLE('',#91,POSITIVE_LENGTH_MEASURE(2.E-2),#10);
#236=PRESENTATION_STYLE_ASSIGNMENT((#235));
#237=STYLED_ITEM('',(#236),#234);
#238=CARTESIAN_POINT('',(2.E1,0.E0,0.E0));
#239=DIRECTION('',(1.E0,0.E0,0.E0));
#240=DIRECTION('',(0.E0,-1.E0,0.E0));
#241=AXIS2_PLACEMENT_3D('',#238,#239,#240);
#243=CURVE_STYLE('',#91,POSITIVE_LENGTH_MEASURE(2.E-2),#10);
#244=PRESENTATION_STYLE_ASSIGNMENT((#243));
#245=STYLED_ITEM('',(#244),#242);
#246=CARTESIAN_POINT('',(2.E1,0.E0,0.E0));
#247=DIRECTION('',(1.E0,0.E0,0.E0));
#248=DIRECTION('',(0.E0,1.E0,0.E0));
#249=AXIS2_PLACEMENT_3D('',#246,#247,#248);
#251=CURVE_STYLE('',#91,POSITIVE_LENGTH_MEASURE(2.E-2),#10);
#252=PRESENTATION_STYLE_ASSIGNMENT((#251));
#253=STYLED_ITEM('',(#252),#250);
#254=CARTESIAN_POINT('',(2.E1,0.E0,0.E0));
#255=DIRECTION('',(1.E0,0.E0,0.E0));
#256=DIRECTION('',(0.E0,-1.E0,0.E0));
#257=AXIS2_PLACEMENT_3D('',#254,#255,#256);
#259=CURVE_STYLE('',#91,POSITIVE_LENGTH_MEASURE(2.E-2),#10);
#260=PRESENTATION_STYLE_ASSIGNMENT((#259));
#261=STYLED_ITEM('',(#260),#258);
#262=DIRECTION('',(1.E0,0.E0,0.E0));
#263=VECTOR('',#262,2.E1);
#264=CARTESIAN_POINT('',(0.E0,1.27E1,0.E0));
#265=LINE('',#264,#263);
#266=CURVE_STYLE('',#91,POSITIVE_LENGTH_MEASURE(2.E-2),#10);
#267=PRESENTATION_STYLE_ASSIGNMENT((#266));
#268=STYLED_ITEM('',(#267),#265);
#269=CARTESIAN_POINT('',(0.E0,0.E0,0.E0));
#270=DIRECTION('',(-1.E0,0.E0,0.E0));
#271=DIRECTION('',(0.E0,0.E0,-1.E0));
#272=AXIS2_PLACEMENT_3D('',#269,#270,#271);
#274=CURVE_STYLE('',#91,POSITIVE_LENGTH_MEASURE(2.E-2),#10);
#275=PRESENTATION_STYLE_ASSIGNMENT((#274));
#276=STYLED_ITEM('',(#275),#273);
#277=CARTESIAN_POINT('',(0.E0,0.E0,0.E0));
#278=DIRECTION('',(1.E0,0.E0,0.E0));
#279=DIRECTION('',(0.E0,0.E0,-1.E0));
#280=AXIS2_PLACEMENT_3D('',#277,#278,#279);
#282=CURVE_STYLE('',#91,POSITIVE_LENGTH_MEASURE(2.E-2),#10);
#283=PRESENTATION_STYLE_ASSIGNMENT((#282));
#284=STYLED_ITEM('',(#283),#281);
#285=CARTESIAN_POINT('',(0.E0,0.E0,0.E0));
#286=DIRECTION('',(1.E0,0.E0,0.E0));
#287=DIRECTION('',(0.E0,1.E0,0.E0));
#288=AXIS2_PLACEMENT_3D('',#285,#286,#287);
#290=CURVE_STYLE('',#91,POSITIVE_LENGTH_MEASURE(2.E-2),#10);
#291=PRESENTATION_STYLE_ASSIGNMENT((#290));
#292=STYLED_ITEM('',(#291),#289);
#293=CARTESIAN_POINT('',(0.E0,0.E0,0.E0));
#294=DIRECTION('',(1.E0,0.E0,0.E0));
#295=DIRECTION('',(0.E0,-1.E0,0.E0));
#296=AXIS2_PLACEMENT_3D('',#293,#294,#295);
#298=CURVE_STYLE('',#91,POSITIVE_LENGTH_MEASURE(2.E-2),#10);
#299=PRESENTATION_STYLE_ASSIGNMENT((#298));
#300=STYLED_ITEM('',(#299),#297);
#301=DIRECTION('',(1.E0,0.E0,0.E0));
#302=VECTOR('',#301,2.E1);
#303=CARTESIAN_POINT('',(0.E0,-1.27E1,0.E0));
#304=LINE('',#303,#302);
#305=CURVE_STYLE('',#91,POSITIVE_LENGTH_MEASURE(2.E-2),#10);
#306=PRESENTATION_STYLE_ASSIGNMENT((#305));
#307=STYLED_ITEM('',(#306),#304);
#308=DIRECTION('',(1.E0,0.E0,0.E0));
#309=VECTOR('',#308,2.35E1);
#310=CARTESIAN_POINT('',(2.E1,-9.E0,0.E0));
#311=LINE('',#310,#309);
#312=CURVE_STYLE('',#91,POSITIVE_LENGTH_MEASURE(2.E-2),#10);
#313=PRESENTATION_STYLE_ASSIGNMENT((#312));
#314=STYLED_ITEM('',(#313),#311);
#315=CARTESIAN_POINT('',(0.E0,0.E0,-1.5E1));
#316=CARTESIAN_POINT('',(0.E0,0.E0,1.5E1));
#317=VERTEX_POINT('',#315);
#318=VERTEX_POINT('',#316);
#319=CARTESIAN_POINT('',(1.924999886792E1,0.E0,-1.5E1));
#320=CARTESIAN_POINT('',(1.924999886792E1,0.E0,1.5E1));
#321=VERTEX_POINT('',#319);
#322=VERTEX_POINT('',#320);
#323=CARTESIAN_POINT('',(2.175000258355E1,0.E0,-1.25E1));
#324=CARTESIAN_POINT('',(2.175000258355E1,0.E0,1.25E1));
#325=VERTEX_POINT('',#323);
#326=VERTEX_POINT('',#324);
#327=CARTESIAN_POINT('',(4.099999864689E1,0.E0,-1.25E1));
#328=CARTESIAN_POINT('',(4.099999864689E1,0.E0,1.25E1));
#329=VERTEX_POINT('',#327);
#330=VERTEX_POINT('',#328);
#331=CARTESIAN_POINT('',(4.350000135544E1,0.E0,-1.000000027719E1));
#332=CARTESIAN_POINT('',(4.350000135544E1,0.E0,1.000000027719E1));
#333=VERTEX_POINT('',#331);
#334=VERTEX_POINT('',#332);
#335=CARTESIAN_POINT('',(2.E1,1.27E1,0.E0));
#336=CARTESIAN_POINT('',(2.E1,-1.27E1,0.E0));
#337=VERTEX_POINT('',#335);
#338=VERTEX_POINT('',#336);
#339=CARTESIAN_POINT('',(0.E0,1.27E1,0.E0));
#340=CARTESIAN_POINT('',(0.E0,-1.27E1,0.E0));
#341=VERTEX_POINT('',#339);
#342=VERTEX_POINT('',#340);
#343=CARTESIAN_POINT('',(2.E1,9.E0,0.E0));
#344=CARTESIAN_POINT('',(2.E1,-9.E0,0.E0));
#345=VERTEX_POINT('',#343);
#346=VERTEX_POINT('',#344);
#347=CARTESIAN_POINT('',(4.35E1,9.E0,0.E0));
#348=VERTEX_POINT('',#347);
#349=CARTESIAN_POINT('',(4.35E1,-9.E0,0.E0));
#350=VERTEX_POINT('',#349);
#351=CARTESIAN_POINT('',(-2.175E0,0.E0,0.E0));
#352=DIRECTION('',(1.E0,0.E0,0.E0));
#353=DIRECTION('',(0.E0,0.E0,1.E0));
#354=AXIS2_PLACEMENT_3D('',#351,#352,#353);
#355=CYLINDRICAL_SURFACE('',#354,1.25E1);
#357=ORIENTED_EDGE('',*,*,#356,.T.);
#359=ORIENTED_EDGE('',*,*,#358,.F.);
#361=ORIENTED_EDGE('',*,*,#360,.F.);
#363=ORIENTED_EDGE('',*,*,#362,.T.);
#364=EDGE_LOOP('',(#357,#359,#361,#363));
#365=FACE_OUTER_BOUND('',#364,.F.);
#366=ADVANCED_FACE('',(#365),#355,.T.);
#367=CARTESIAN_POINT('',(2.049999892287E1,0.E0,0.E0));
#368=DIRECTION('',(-1.E0,0.E0,0.E0));
#369=DIRECTION('',(0.E0,0.E0,-1.E0));
#370=AXIS2_PLACEMENT_3D('',#367,#368,#369);
#371=CONICAL_SURFACE('',#370,1.375000391903E1,4.500000592105E1);
#373=ORIENTED_EDGE('',*,*,#372,.T.);
#375=ORIENTED_EDGE('',*,*,#374,.T.);
#376=ORIENTED_EDGE('',*,*,#356,.F.);
#378=ORIENTED_EDGE('',*,*,#377,.F.);
#379=EDGE_LOOP('',(#373,#375,#376,#378));
#380=FACE_OUTER_BOUND('',#379,.F.);
#381=ADVANCED_FACE('',(#380),#371,.T.);
#382=CARTESIAN_POINT('',(-2.175E0,0.E0,0.E0));
#383=DIRECTION('',(1.E0,0.E0,0.E0));
#384=DIRECTION('',(0.E0,0.E0,1.E0));
#385=AXIS2_PLACEMENT_3D('',#382,#383,#384);
#386=CYLINDRICAL_SURFACE('',#385,1.5E1);
#387=ORIENTED_EDGE('',*,*,#372,.F.);
#389=ORIENTED_EDGE('',*,*,#388,.T.);
#391=ORIENTED_EDGE('',*,*,#390,.F.);
#393=ORIENTED_EDGE('',*,*,#392,.F.);
#394=EDGE_LOOP('',(#387,#389,#391,#393));
#395=FACE_OUTER_BOUND('',#394,.F.);
#396=ADVANCED_FACE('',(#395),#386,.T.);
#397=CARTESIAN_POINT('',(-2.175E0,0.E0,0.E0));
#398=DIRECTION('',(1.E0,0.E0,0.E0));
#399=DIRECTION('',(0.E0,0.E0,1.E0));
#400=AXIS2_PLACEMENT_3D('',#397,#398,#399);
#401=CYLINDRICAL_SURFACE('',#400,1.5E1);
#403=ORIENTED_EDGE('',*,*,#402,.F.);
#404=ORIENTED_EDGE('',*,*,#392,.T.);
#406=ORIENTED_EDGE('',*,*,#405,.T.);
#407=ORIENTED_EDGE('',*,*,#388,.F.);
#408=EDGE_LOOP('',(#403,#404,#406,#407));
#409=FACE_OUTER_BOUND('',#408,.F.);
#410=ADVANCED_FACE('',(#409),#401,.T.);
#411=CARTESIAN_POINT('',(2.049999892287E1,0.E0,0.E0));
#412=DIRECTION('',(-1.E0,0.E0,0.E0));
#413=DIRECTION('',(0.E0,0.E0,-1.E0));
#414=AXIS2_PLACEMENT_3D('',#411,#412,#413);
#415=CONICAL_SURFACE('',#414,1.375000391903E1,4.500000592105E1);
#416=ORIENTED_EDGE('',*,*,#402,.T.);
#417=ORIENTED_EDGE('',*,*,#377,.T.);
#419=ORIENTED_EDGE('',*,*,#418,.F.);
#420=ORIENTED_EDGE('',*,*,#374,.F.);
#421=EDGE_LOOP('',(#416,#417,#419,#420));
#422=FACE_OUTER_BOUND('',#421,.F.);
#423=ADVANCED_FACE('',(#422),#415,.T.);
#424=CARTESIAN_POINT('',(-2.175E0,0.E0,0.E0));
#425=DIRECTION('',(1.E0,0.E0,0.E0));
#426=DIRECTION('',(0.E0,0.E0,1.E0));
#427=AXIS2_PLACEMENT_3D('',#424,#425,#426);
#428=CYLINDRICAL_SURFACE('',#427,1.25E1);
#429=ORIENTED_EDGE('',*,*,#418,.T.);
#430=ORIENTED_EDGE('',*,*,#362,.F.);
#432=ORIENTED_EDGE('',*,*,#431,.F.);
#433=ORIENTED_EDGE('',*,*,#358,.T.);
#434=EDGE_LOOP('',(#429,#430,#432,#433));
#435=FACE_OUTER_BOUND('',#434,.F.);
#436=ADVANCED_FACE('',(#435),#428,.T.);
#437=CARTESIAN_POINT('',(4.225000019328E1,0.E0,0.E0));
#438=DIRECTION('',(-1.E0,0.E0,0.E0));
#439=DIRECTION('',(0.E0,0.E0,-1.E0));
#440=AXIS2_PLACEMENT_3D('',#437,#438,#439);
#441=CONICAL_SURFACE('',#440,1.125000164342E1,4.500000467713E1);
#442=ORIENTED_EDGE('',*,*,#431,.T.);
#444=ORIENTED_EDGE('',*,*,#443,.T.);
#446=ORIENTED_EDGE('',*,*,#445,.F.);
#448=ORIENTED_EDGE('',*,*,#447,.F.);
#449=EDGE_LOOP('',(#442,#444,#446,#448));
#450=FACE_OUTER_BOUND('',#449,.F.);
#451=ADVANCED_FACE('',(#450),#441,.T.);
#452=CARTESIAN_POINT('',(4.225000019328E1,0.E0,0.E0));
#453=DIRECTION('',(-1.E0,0.E0,0.E0));
#454=DIRECTION('',(0.E0,0.E0,-1.E0));
#455=AXIS2_PLACEMENT_3D('',#452,#453,#454);
#456=CONICAL_SURFACE('',#455,1.125000164342E1,4.500000467713E1);
#457=ORIENTED_EDGE('',*,*,#360,.T.);
#458=ORIENTED_EDGE('',*,*,#447,.T.);
#460=ORIENTED_EDGE('',*,*,#459,.F.);
#461=ORIENTED_EDGE('',*,*,#443,.F.);
#462=EDGE_LOOP('',(#457,#458,#460,#461));
#463=FACE_OUTER_BOUND('',#462,.F.);
#464=ADVANCED_FACE('',(#463),#456,.T.);
#465=CARTESIAN_POINT('',(4.35E1,0.E0,0.E0));
#466=DIRECTION('',(1.E0,0.E0,0.E0));
#467=DIRECTION('',(0.E0,0.E0,1.E0));
#468=AXIS2_PLACEMENT_3D('',#465,#466,#467);
#469=PLANE('',#468);
#470=ORIENTED_EDGE('',*,*,#445,.T.);
#471=ORIENTED_EDGE('',*,*,#459,.T.);
#472=EDGE_LOOP('',(#470,#471));
#473=FACE_OUTER_BOUND('',#472,.F.);
#475=ORIENTED_EDGE('',*,*,#474,.T.);
#477=ORIENTED_EDGE('',*,*,#476,.T.);
#478=EDGE_LOOP('',(#475,#477));
#479=FACE_BOUND('',#478,.F.);
#480=ADVANCED_FACE('',(#473,#479),#469,.T.);
#481=CARTESIAN_POINT('',(2.E1,0.E0,0.E0));
#482=DIRECTION('',(1.E0,0.E0,0.E0));
#483=DIRECTION('',(0.E0,1.E0,0.E0));
#484=AXIS2_PLACEMENT_3D('',#481,#482,#483);
#485=CYLINDRICAL_SURFACE('',#484,9.E0);
#487=ORIENTED_EDGE('',*,*,#486,.T.);
#489=ORIENTED_EDGE('',*,*,#488,.T.);
#490=ORIENTED_EDGE('',*,*,#474,.F.);
#492=ORIENTED_EDGE('',*,*,#491,.F.);
#493=EDGE_LOOP('',(#487,#489,#490,#492));
#494=FACE_OUTER_BOUND('',#493,.F.);
#495=ADVANCED_FACE('',(#494),#485,.F.);
#496=CARTESIAN_POINT('',(2.E1,0.E0,0.E0));
#497=DIRECTION('',(1.E0,0.E0,0.E0));
#498=DIRECTION('',(0.E0,1.E0,0.E0));
#499=AXIS2_PLACEMENT_3D('',#496,#497,#498);
#500=PLANE('',#499);
#502=ORIENTED_EDGE('',*,*,#501,.T.);
#504=ORIENTED_EDGE('',*,*,#503,.T.);
#505=EDGE_LOOP('',(#502,#504));
#506=FACE_OUTER_BOUND('',#505,.F.);
#507=ORIENTED_EDGE('',*,*,#486,.F.);
#509=ORIENTED_EDGE('',*,*,#508,.F.);
#510=EDGE_LOOP('',(#507,#509));
#511=FACE_BOUND('',#510,.F.);
#512=ADVANCED_FACE('',(#506,#511),#500,.F.);
#513=CARTESIAN_POINT('',(0.E0,0.E0,0.E0));
#514=DIRECTION('',(1.E0,0.E0,0.E0));
#515=DIRECTION('',(0.E0,1.E0,0.E0));
#516=AXIS2_PLACEMENT_3D('',#513,#514,#515);
#517=CYLINDRICAL_SURFACE('',#516,1.27E1);
#519=ORIENTED_EDGE('',*,*,#518,.T.);
#521=ORIENTED_EDGE('',*,*,#520,.T.);
#522=ORIENTED_EDGE('',*,*,#501,.F.);
#524=ORIENTED_EDGE('',*,*,#523,.F.);
#525=EDGE_LOOP('',(#519,#521,#522,#524));
#526=FACE_OUTER_BOUND('',#525,.F.);
#527=ADVANCED_FACE('',(#526),#517,.F.);
#528=CARTESIAN_POINT('',(0.E0,0.E0,0.E0));
#529=DIRECTION('',(1.E0,0.E0,0.E0));
#530=DIRECTION('',(0.E0,0.E0,1.E0));
#531=AXIS2_PLACEMENT_3D('',#528,#529,#530);
#532=PLANE('',#531);
#533=ORIENTED_EDGE('',*,*,#405,.F.);
#534=ORIENTED_EDGE('',*,*,#390,.T.);
#535=EDGE_LOOP('',(#533,#534));
#536=FACE_OUTER_BOUND('',#535,.F.);
#537=ORIENTED_EDGE('',*,*,#518,.F.);
#539=ORIENTED_EDGE('',*,*,#538,.F.);
#540=EDGE_LOOP('',(#537,#539));
#541=FACE_BOUND('',#540,.F.);
#542=ADVANCED_FACE('',(#536,#541),#532,.F.);
#543=CARTESIAN_POINT('',(0.E0,0.E0,0.E0));
#544=DIRECTION('',(1.E0,0.E0,0.E0));
#545=DIRECTION('',(0.E0,1.E0,0.E0));
#546=AXIS2_PLACEMENT_3D('',#543,#544,#545);
#547=CYLINDRICAL_SURFACE('',#546,1.27E1);
#548=ORIENTED_EDGE('',*,*,#538,.T.);
#549=ORIENTED_EDGE('',*,*,#523,.T.);
#550=ORIENTED_EDGE('',*,*,#503,.F.);
#551=ORIENTED_EDGE('',*,*,#520,.F.);
#552=EDGE_LOOP('',(#548,#549,#550,#551));
#553=FACE_OUTER_BOUND('',#552,.F.);
#554=ADVANCED_FACE('',(#553),#547,.F.);
#555=CARTESIAN_POINT('',(2.E1,0.E0,0.E0));
#556=DIRECTION('',(1.E0,0.E0,0.E0));
#557=DIRECTION('',(0.E0,1.E0,0.E0));
#558=AXIS2_PLACEMENT_3D('',#555,#556,#557);
#559=CYLINDRICAL_SURFACE('',#558,9.E0);
#560=ORIENTED_EDGE('',*,*,#508,.T.);
#561=ORIENTED_EDGE('',*,*,#491,.T.);
#562=ORIENTED_EDGE('',*,*,#476,.F.);
#563=ORIENTED_EDGE('',*,*,#488,.F.);
#564=EDGE_LOOP('',(#560,#561,#562,#563));
#565=FACE_OUTER_BOUND('',#564,.F.);
#566=ADVANCED_FACE('',(#565),#559,.F.);
#567=CLOSED_SHELL('',(#366,#381,#396,#410,#423,#436,#451,#464,#480,#495,#512,
#527,#542,#554,#566));
#568=MANIFOLD_SOLID_BREP('',#567);
#569=FILL_AREA_STYLE_COLOUR('',#10);
#570=FILL_AREA_STYLE('',(#569));
#571=SURFACE_STYLE_FILL_AREA(#570);
#572=SURFACE_SIDE_STYLE('',(#571));
#573=SURFACE_STYLE_USAGE(.BOTH.,#572);
#574=PRESENTATION_STYLE_ASSIGNMENT((#573));
#85=STYLED_ITEM('',(#574),#568);
#575=(LENGTH_UNIT()NAMED_UNIT(*)SI_UNIT(.MILLI.,.METRE.));
#576=DIMENSIONAL_EXPONENTS(0.E0,0.E0,0.E0,0.E0,0.E0,0.E0,0.E0);
#577=(NAMED_UNIT(*)PLANE_ANGLE_UNIT()SI_UNIT($,.RADIAN.));
#578=PLANE_ANGLE_MEASURE_WITH_UNIT(PLANE_ANGLE_MEASURE(1.745329251994E-2),#577);
#579=(CONVERSION_BASED_UNIT('DEGREE',#578)NAMED_UNIT(#576)PLANE_ANGLE_UNIT());
#580=(NAMED_UNIT(*)SI_UNIT($,.STERADIAN.)SOLID_ANGLE_UNIT());
#581=UNCERTAINTY_MEASURE_WITH_UNIT(LENGTH_MEASURE(6.077367169714E-3),#575,
'closure',
'Maximum model space distance between geometric entities at asserted connectivities');
#582=(GEOMETRIC_REPRESENTATION_CONTEXT(3)GLOBAL_UNCERTAINTY_ASSIGNED_CONTEXT((
#581))GLOBAL_UNIT_ASSIGNED_CONTEXT((#575,#579,#580))REPRESENTATION_CONTEXT
('ID1','3'));
#584=MECHANICAL_DESIGN_GEOMETRIC_PRESENTATION_REPRESENTATION('',(#94,#102,#109,
#117,#125,#132,#139,#146,#154,#161,#169,#176,#183,#190,#198,#206,#214,#222,#229,
#237,#245,#253,#261,#268,#276,#284,#292,#300,#307,#314,#85),#582);
#585=APPLICATION_CONTEXT(
'CONFIGURATION CONTROLLED 3D DESIGNS OF MECHANICAL PARTS AND ASSEMBLIES');
#586=APPLICATION_PROTOCOL_DEFINITION('international standard',
'config_control_design',1994,#585);
#587=DESIGN_CONTEXT('',#585,'design');
#588=MECHANICAL_CONTEXT('',#585,'mechanical');
#589=PRODUCT('PRT0001','PRT0001','NOT SPECIFIED',(#588));
#590=PRODUCT_DEFINITION_FORMATION_WITH_SPECIFIED_SOURCE('1','LAST_VERSION',#589,
.MADE.);
#594=PRODUCT_CATEGORY('part','');
#595=PRODUCT_RELATED_PRODUCT_CATEGORY('detail','',(#589));
#596=PRODUCT_CATEGORY_RELATIONSHIP('','',#594,#595);
#597=SECURITY_CLASSIFICATION_LEVEL('unclassified');
#598=SECURITY_CLASSIFICATION('','',#597);
#599=CC_DESIGN_SECURITY_CLASSIFICATION(#598,(#590));
#600=APPROVAL_STATUS('approved');
#601=APPROVAL(#600,'');
#602=CC_DESIGN_APPROVAL(#601,(#598,#590,#591));
#603=CALENDAR_DATE(112,15,3);
#604=COORDINATED_UNIVERSAL_TIME_OFFSET(1,0,.AHEAD.);
#605=LOCAL_TIME(13,32,1.E0,#604);
#606=DATE_AND_TIME(#603,#605);
#607=APPROVAL_DATE_TIME(#606,#601);
#608=DATE_TIME_ROLE('creation_date');
#609=CC_DESIGN_DATE_AND_TIME_ASSIGNMENT(#606,#608,(#591));
#610=DATE_TIME_ROLE('classification_date');
#611=CC_DESIGN_DATE_AND_TIME_ASSIGNMENT(#606,#610,(#598));
#612=PERSON('UNSPECIFIED','UNSPECIFIED',$,$,$,$);
#613=ORGANIZATION('UNSPECIFIED','UNSPECIFIED','UNSPECIFIED');
#614=PERSON_AND_ORGANIZATION(#612,#613);
#615=APPROVAL_ROLE('approver');
#616=APPROVAL_PERSON_ORGANIZATION(#614,#601,#615);
#617=PERSON_AND_ORGANIZATION_ROLE('creator');
#618=CC_DESIGN_PERSON_AND_ORGANIZATION_ASSIGNMENT(#614,#617,(#590,#591));
#619=PERSON_AND_ORGANIZATION_ROLE('design_supplier');
#620=CC_DESIGN_PERSON_AND_ORGANIZATION_ASSIGNMENT(#614,#619,(#590));
#621=PERSON_AND_ORGANIZATION_ROLE('classification_officer');
#622=CC_DESIGN_PERSON_AND_ORGANIZATION_ASSIGNMENT(#614,#621,(#598));
#623=PERSON_AND_ORGANIZATION_ROLE('design_owner');
#624=CC_DESIGN_PERSON_AND_ORGANIZATION_ASSIGNMENT(#614,#623,(#589));
#90=CIRCLE('',#89,1.25E1);
#99=CIRCLE('',#98,1.25E1);
#114=CIRCLE('',#113,1.5E1);
#122=CIRCLE('',#121,1.5E1);
#151=CIRCLE('',#150,1.25E1);
#166=CIRCLE('',#165,1.25E1);
#195=CIRCLE('',#194,1.000000027719E1);
#203=CIRCLE('',#202,1.000000027719E1);
#211=CIRCLE('',#210,9.E0);
#219=CIRCLE('',#218,9.E0);
#234=CIRCLE('',#233,1.27E1);
#242=CIRCLE('',#241,1.27E1);
#250=CIRCLE('',#249,9.E0);
#258=CIRCLE('',#257,9.E0);
#273=CIRCLE('',#272,1.5E1);
#281=CIRCLE('',#280,1.5E1);
#289=CIRCLE('',#288,1.27E1);
#297=CIRCLE('',#296,1.27E1);
#356=EDGE_CURVE('',#326,#325,#90,.T.);
#358=EDGE_CURVE('',#329,#325,#173,.T.);
#360=EDGE_CURVE('',#330,#329,#99,.T.);
#362=EDGE_CURVE('',#330,#326,#158,.T.);
#372=EDGE_CURVE('',#322,#321,#114,.T.);
#374=EDGE_CURVE('',#321,#325,#143,.T.);
#377=EDGE_CURVE('',#322,#326,#106,.T.);
#388=EDGE_CURVE('',#322,#318,#136,.T.);
#390=EDGE_CURVE('',#317,#318,#281,.T.);
#392=EDGE_CURVE('',#321,#317,#129,.T.);
#402=EDGE_CURVE('',#321,#322,#122,.T.);
#405=EDGE_CURVE('',#317,#318,#273,.T.);
#418=EDGE_CURVE('',#325,#326,#151,.T.);
#431=EDGE_CURVE('',#329,#330,#166,.T.);
#443=EDGE_CURVE('',#330,#334,#187,.T.);
#445=EDGE_CURVE('',#333,#334,#195,.T.);
#447=EDGE_CURVE('',#329,#333,#180,.T.);
#459=EDGE_CURVE('',#334,#333,#203,.T.);
#474=EDGE_CURVE('',#348,#350,#211,.T.);
#476=EDGE_CURVE('',#350,#348,#219,.T.);
#486=EDGE_CURVE('',#345,#346,#250,.T.);
#488=EDGE_CURVE('',#346,#350,#311,.T.);
#491=EDGE_CURVE('',#345,#348,#226,.T.);
#501=EDGE_CURVE('',#337,#338,#234,.T.);
#503=EDGE_CURVE('',#338,#337,#242,.T.);
#508=EDGE_CURVE('',#346,#345,#258,.T.);
#518=EDGE_CURVE('',#341,#342,#289,.T.);
#520=EDGE_CURVE('',#342,#338,#304,.T.);
#523=EDGE_CURVE('',#341,#337,#265,.T.);
#538=EDGE_CURVE('',#342,#341,#297,.T.);
#583=ADVANCED_BREP_SHAPE_REPRESENTATION('',(#568),#582);
#591=PRODUCT_DEFINITION('design','',#590,#587);
#592=PRODUCT_DEFINITION_SHAPE('','SHAPE FOR PRT0001.',#591);
#593=SHAPE_DEFINITION_REPRESENTATION(#592,#583);
ENDSEC;
END-ISO-10303-21;
