ISO-10303-21;
HEADER;
FILE_DESCRIPTION((''),'2;1');
FILE_NAME('DB007111_DECKEL_SPIEGELSAEULE','2012-10-26T',('staeubert'),(''),
'PRO/ENGINEER BY PARAMETRIC TECHNOLOGY CORPORATION, 2007250',
'PRO/ENGINEER BY PARAMETRIC TECHNOLOGY CORPORATION, 2007250','');
FILE_SCHEMA(('CONFIG_CONTROL_DESIGN'));
ENDSEC;
DATA;
#2=CARTESIAN_POINT('',(7.E0,-5.57E1,0.E0));
#3=DIRECTION('',(0.E0,0.E0,1.E0));
#4=DIRECTION('',(-1.E0,0.E0,0.E0));
#5=AXIS2_PLACEMENT_3D('',#2,#3,#4);
#7=DIRECTION('',(0.E0,-1.E0,0.E0));
#8=VECTOR('',#7,1.114E2);
#9=CARTESIAN_POINT('',(0.E0,5.57E1,0.E0));
#10=LINE('',#9,#8);
#11=CARTESIAN_POINT('',(7.E0,5.57E1,0.E0));
#12=DIRECTION('',(0.E0,0.E0,1.E0));
#13=DIRECTION('',(0.E0,1.E0,0.E0));
#14=AXIS2_PLACEMENT_3D('',#11,#12,#13);
#16=DIRECTION('',(-1.E0,0.E0,0.E0));
#17=VECTOR('',#16,2.67E1);
#18=CARTESIAN_POINT('',(3.37E1,6.27E1,0.E0));
#19=LINE('',#18,#17);
#20=CARTESIAN_POINT('',(3.37E1,0.E0,0.E0));
#21=DIRECTION('',(0.E0,0.E0,1.E0));
#22=DIRECTION('',(0.E0,-1.E0,0.E0));
#23=AXIS2_PLACEMENT_3D('',#20,#21,#22);
#25=DIRECTION('',(1.E0,0.E0,0.E0));
#26=VECTOR('',#25,2.67E1);
#27=CARTESIAN_POINT('',(7.E0,-6.27E1,0.E0));
#28=LINE('',#27,#26);
#29=CARTESIAN_POINT('',(7.1E0,5.565E1,0.E0));
#30=DIRECTION('',(0.E0,0.E0,1.E0));
#31=DIRECTION('',(0.E0,-1.E0,0.E0));
#32=AXIS2_PLACEMENT_3D('',#29,#30,#31);
#34=CARTESIAN_POINT('',(7.1E0,5.565E1,0.E0));
#35=DIRECTION('',(0.E0,0.E0,1.E0));
#36=DIRECTION('',(0.E0,1.E0,0.E0));
#37=AXIS2_PLACEMENT_3D('',#34,#35,#36);
#39=CARTESIAN_POINT('',(7.1E0,-5.565E1,0.E0));
#40=DIRECTION('',(0.E0,0.E0,1.E0));
#41=DIRECTION('',(0.E0,-1.E0,0.E0));
#42=AXIS2_PLACEMENT_3D('',#39,#40,#41);
#44=CARTESIAN_POINT('',(7.1E0,-5.565E1,0.E0));
#45=DIRECTION('',(0.E0,0.E0,1.E0));
#46=DIRECTION('',(0.E0,1.E0,0.E0));
#47=AXIS2_PLACEMENT_3D('',#44,#45,#46);
#49=CARTESIAN_POINT('',(8.94E1,0.E0,0.E0));
#50=DIRECTION('',(0.E0,0.E0,1.E0));
#51=DIRECTION('',(0.E0,-1.E0,0.E0));
#52=AXIS2_PLACEMENT_3D('',#49,#50,#51);
#54=CARTESIAN_POINT('',(8.94E1,0.E0,0.E0));
#55=DIRECTION('',(0.E0,0.E0,1.E0));
#56=DIRECTION('',(0.E0,1.E0,0.E0));
#57=AXIS2_PLACEMENT_3D('',#54,#55,#56);
#59=CARTESIAN_POINT('',(7.E0,-5.57E1,-2.E0));
#60=DIRECTION('',(0.E0,0.E0,-1.E0));
#61=DIRECTION('',(0.E0,-1.E0,0.E0));
#62=AXIS2_PLACEMENT_3D('',#59,#60,#61);
#64=DIRECTION('',(1.E0,0.E0,0.E0));
#65=VECTOR('',#64,2.67E1);
#66=CARTESIAN_POINT('',(7.E0,-6.27E1,-2.E0));
#67=LINE('',#66,#65);
#68=CARTESIAN_POINT('',(3.37E1,0.E0,-2.E0));
#69=DIRECTION('',(0.E0,0.E0,1.E0));
#70=DIRECTION('',(0.E0,-1.E0,0.E0));
#71=AXIS2_PLACEMENT_3D('',#68,#69,#70);
#73=DIRECTION('',(-1.E0,0.E0,0.E0));
#74=VECTOR('',#73,2.67E1);
#75=CARTESIAN_POINT('',(3.37E1,6.27E1,-2.E0));
#76=LINE('',#75,#74);
#77=CARTESIAN_POINT('',(7.E0,5.57E1,-2.E0));
#78=DIRECTION('',(0.E0,0.E0,-1.E0));
#79=DIRECTION('',(-1.E0,0.E0,0.E0));
#80=AXIS2_PLACEMENT_3D('',#77,#78,#79);
#82=DIRECTION('',(0.E0,-1.E0,0.E0));
#83=VECTOR('',#82,1.114E2);
#84=CARTESIAN_POINT('',(0.E0,5.57E1,-2.E0));
#85=LINE('',#84,#83);
#86=CARTESIAN_POINT('',(7.1E0,5.565E1,-2.E0));
#87=DIRECTION('',(0.E0,0.E0,1.E0));
#88=DIRECTION('',(0.E0,-1.E0,0.E0));
#89=AXIS2_PLACEMENT_3D('',#86,#87,#88);
#91=CARTESIAN_POINT('',(7.1E0,5.565E1,-2.E0));
#92=DIRECTION('',(0.E0,0.E0,1.E0));
#93=DIRECTION('',(0.E0,1.E0,0.E0));
#94=AXIS2_PLACEMENT_3D('',#91,#92,#93);
#96=CARTESIAN_POINT('',(7.1E0,-5.565E1,-2.E0));
#97=DIRECTION('',(0.E0,0.E0,1.E0));
#98=DIRECTION('',(0.E0,-1.E0,0.E0));
#99=AXIS2_PLACEMENT_3D('',#96,#97,#98);
#101=CARTESIAN_POINT('',(7.1E0,-5.565E1,-2.E0));
#102=DIRECTION('',(0.E0,0.E0,1.E0));
#103=DIRECTION('',(0.E0,1.E0,0.E0));
#104=AXIS2_PLACEMENT_3D('',#101,#102,#103);
#106=CARTESIAN_POINT('',(8.94E1,0.E0,-2.E0));
#107=DIRECTION('',(0.E0,0.E0,1.E0));
#108=DIRECTION('',(0.E0,-1.E0,0.E0));
#109=AXIS2_PLACEMENT_3D('',#106,#107,#108);
#111=CARTESIAN_POINT('',(8.94E1,0.E0,-2.E0));
#112=DIRECTION('',(0.E0,0.E0,1.E0));
#113=DIRECTION('',(0.E0,1.E0,0.E0));
#114=AXIS2_PLACEMENT_3D('',#111,#112,#113);
#116=DIRECTION('',(0.E0,0.E0,-1.E0));
#117=VECTOR('',#116,2.E0);
#118=CARTESIAN_POINT('',(7.E0,-6.27E1,0.E0));
#119=LINE('',#118,#117);
#120=DIRECTION('',(0.E0,0.E0,-1.E0));
#121=VECTOR('',#120,2.E0);
#122=CARTESIAN_POINT('',(3.37E1,-6.27E1,0.E0));
#123=LINE('',#122,#121);
#124=DIRECTION('',(0.E0,0.E0,-1.E0));
#125=VECTOR('',#124,2.E0);
#126=CARTESIAN_POINT('',(7.E0,6.27E1,0.E0));
#127=LINE('',#126,#125);
#128=DIRECTION('',(0.E0,0.E0,-1.E0));
#129=VECTOR('',#128,2.E0);
#130=CARTESIAN_POINT('',(3.37E1,6.27E1,0.E0));
#131=LINE('',#130,#129);
#132=DIRECTION('',(0.E0,0.E0,-1.E0));
#133=VECTOR('',#132,2.E0);
#134=CARTESIAN_POINT('',(0.E0,-5.57E1,0.E0));
#135=LINE('',#134,#133);
#136=DIRECTION('',(0.E0,0.E0,-1.E0));
#137=VECTOR('',#136,2.E0);
#138=CARTESIAN_POINT('',(0.E0,5.57E1,0.E0));
#139=LINE('',#138,#137);
#140=DIRECTION('',(0.E0,0.E0,-1.E0));
#141=VECTOR('',#140,2.E0);
#142=CARTESIAN_POINT('',(7.1E0,5.14E1,0.E0));
#143=LINE('',#142,#141);
#144=DIRECTION('',(0.E0,0.E0,-1.E0));
#145=VECTOR('',#144,2.E0);
#146=CARTESIAN_POINT('',(7.1E0,5.99E1,0.E0));
#147=LINE('',#146,#145);
#148=DIRECTION('',(0.E0,0.E0,-1.E0));
#149=VECTOR('',#148,2.E0);
#150=CARTESIAN_POINT('',(7.1E0,-5.99E1,0.E0));
#151=LINE('',#150,#149);
#152=DIRECTION('',(0.E0,0.E0,-1.E0));
#153=VECTOR('',#152,2.E0);
#154=CARTESIAN_POINT('',(7.1E0,-5.14E1,0.E0));
#155=LINE('',#154,#153);
#156=DIRECTION('',(0.E0,0.E0,-1.E0));
#157=VECTOR('',#156,2.E0);
#158=CARTESIAN_POINT('',(8.94E1,-4.25E0,0.E0));
#159=LINE('',#158,#157);
#160=DIRECTION('',(0.E0,0.E0,-1.E0));
#161=VECTOR('',#160,2.E0);
#162=CARTESIAN_POINT('',(8.94E1,4.25E0,0.E0));
#163=LINE('',#162,#161);
#164=CARTESIAN_POINT('',(7.E0,-6.27E1,-2.E0));
#165=CARTESIAN_POINT('',(0.E0,-5.57E1,-2.E0));
#166=VERTEX_POINT('',#164);
#167=VERTEX_POINT('',#165);
#168=CARTESIAN_POINT('',(0.E0,-5.57E1,0.E0));
#169=VERTEX_POINT('',#168);
#170=CARTESIAN_POINT('',(7.E0,-6.27E1,0.E0));
#171=VERTEX_POINT('',#170);
#172=CARTESIAN_POINT('',(0.E0,5.57E1,-2.E0));
#173=CARTESIAN_POINT('',(7.E0,6.27E1,-2.E0));
#174=VERTEX_POINT('',#172);
#175=VERTEX_POINT('',#173);
#176=CARTESIAN_POINT('',(7.E0,6.27E1,0.E0));
#177=VERTEX_POINT('',#176);
#178=CARTESIAN_POINT('',(0.E0,5.57E1,0.E0));
#179=VERTEX_POINT('',#178);
#180=CARTESIAN_POINT('',(3.37E1,-6.27E1,0.E0));
#181=VERTEX_POINT('',#180);
#182=CARTESIAN_POINT('',(3.37E1,6.27E1,0.E0));
#183=VERTEX_POINT('',#182);
#184=CARTESIAN_POINT('',(3.37E1,-6.27E1,-2.E0));
#185=VERTEX_POINT('',#184);
#186=CARTESIAN_POINT('',(3.37E1,6.27E1,-2.E0));
#187=VERTEX_POINT('',#186);
#188=CARTESIAN_POINT('',(7.1E0,5.14E1,0.E0));
#189=CARTESIAN_POINT('',(7.1E0,5.99E1,0.E0));
#190=VERTEX_POINT('',#188);
#191=VERTEX_POINT('',#189);
#192=CARTESIAN_POINT('',(7.1E0,-5.99E1,0.E0));
#193=CARTESIAN_POINT('',(7.1E0,-5.14E1,0.E0));
#194=VERTEX_POINT('',#192);
#195=VERTEX_POINT('',#193);
#196=CARTESIAN_POINT('',(8.94E1,-4.25E0,0.E0));
#197=CARTESIAN_POINT('',(8.94E1,4.25E0,0.E0));
#198=VERTEX_POINT('',#196);
#199=VERTEX_POINT('',#197);
#200=CARTESIAN_POINT('',(7.1E0,5.14E1,-2.E0));
#201=CARTESIAN_POINT('',(7.1E0,5.99E1,-2.E0));
#202=VERTEX_POINT('',#200);
#203=VERTEX_POINT('',#201);
#204=CARTESIAN_POINT('',(7.1E0,-5.99E1,-2.E0));
#205=CARTESIAN_POINT('',(7.1E0,-5.14E1,-2.E0));
#206=VERTEX_POINT('',#204);
#207=VERTEX_POINT('',#205);
#208=CARTESIAN_POINT('',(8.94E1,-4.25E0,-2.E0));
#209=CARTESIAN_POINT('',(8.94E1,4.25E0,-2.E0));
#210=VERTEX_POINT('',#208);
#211=VERTEX_POINT('',#209);
#212=CARTESIAN_POINT('',(0.E0,0.E0,0.E0));
#213=DIRECTION('',(0.E0,0.E0,1.E0));
#214=DIRECTION('',(1.E0,0.E0,0.E0));
#215=AXIS2_PLACEMENT_3D('',#212,#213,#214);
#216=PLANE('',#215);
#218=ORIENTED_EDGE('',*,*,#217,.F.);
#220=ORIENTED_EDGE('',*,*,#219,.F.);
#222=ORIENTED_EDGE('',*,*,#221,.F.);
#224=ORIENTED_EDGE('',*,*,#223,.F.);
#226=ORIENTED_EDGE('',*,*,#225,.F.);
#228=ORIENTED_EDGE('',*,*,#227,.F.);
#229=EDGE_LOOP('',(#218,#220,#222,#224,#226,#228));
#230=FACE_OUTER_BOUND('',#229,.F.);
#232=ORIENTED_EDGE('',*,*,#231,.T.);
#234=ORIENTED_EDGE('',*,*,#233,.T.);
#235=EDGE_LOOP('',(#232,#234));
#236=FACE_BOUND('',#235,.F.);
#238=ORIENTED_EDGE('',*,*,#237,.T.);
#240=ORIENTED_EDGE('',*,*,#239,.T.);
#241=EDGE_LOOP('',(#238,#240));
#242=FACE_BOUND('',#241,.F.);
#244=ORIENTED_EDGE('',*,*,#243,.T.);
#246=ORIENTED_EDGE('',*,*,#245,.T.);
#247=EDGE_LOOP('',(#244,#246));
#248=FACE_BOUND('',#247,.F.);
#249=ADVANCED_FACE('',(#230,#236,#242,#248),#216,.T.);
#250=CARTESIAN_POINT('',(7.E0,-5.57E1,2.569680050307E-1));
#251=DIRECTION('',(0.E0,0.E0,-1.E0));
#252=DIRECTION('',(0.E0,-1.E0,0.E0));
#253=AXIS2_PLACEMENT_3D('',#250,#251,#252);
#254=CYLINDRICAL_SURFACE('',#253,7.E0);
#256=ORIENTED_EDGE('',*,*,#255,.T.);
#258=ORIENTED_EDGE('',*,*,#257,.F.);
#259=ORIENTED_EDGE('',*,*,#217,.T.);
#261=ORIENTED_EDGE('',*,*,#260,.T.);
#262=EDGE_LOOP('',(#256,#258,#259,#261));
#263=FACE_OUTER_BOUND('',#262,.F.);
#264=ADVANCED_FACE('',(#263),#254,.T.);
#265=CARTESIAN_POINT('',(0.E0,0.E0,-2.E0));
#266=DIRECTION('',(0.E0,0.E0,1.E0));
#267=DIRECTION('',(1.E0,0.E0,0.E0));
#268=AXIS2_PLACEMENT_3D('',#265,#266,#267);
#269=PLANE('',#268);
#270=ORIENTED_EDGE('',*,*,#255,.F.);
#272=ORIENTED_EDGE('',*,*,#271,.T.);
#274=ORIENTED_EDGE('',*,*,#273,.T.);
#276=ORIENTED_EDGE('',*,*,#275,.T.);
#278=ORIENTED_EDGE('',*,*,#277,.F.);
#280=ORIENTED_EDGE('',*,*,#279,.T.);
#281=EDGE_LOOP('',(#270,#272,#274,#276,#278,#280));
#282=FACE_OUTER_BOUND('',#281,.F.);
#284=ORIENTED_EDGE('',*,*,#283,.F.);
#286=ORIENTED_EDGE('',*,*,#285,.F.);
#287=EDGE_LOOP('',(#284,#286));
#288=FACE_BOUND('',#287,.F.);
#290=ORIENTED_EDGE('',*,*,#289,.F.);
#292=ORIENTED_EDGE('',*,*,#291,.F.);
#293=EDGE_LOOP('',(#290,#292));
#294=FACE_BOUND('',#293,.F.);
#296=ORIENTED_EDGE('',*,*,#295,.F.);
#298=ORIENTED_EDGE('',*,*,#297,.F.);
#299=EDGE_LOOP('',(#296,#298));
#300=FACE_BOUND('',#299,.F.);
#301=ADVANCED_FACE('',(#282,#288,#294,#300),#269,.F.);
#302=CARTESIAN_POINT('',(0.E0,-6.27E1,0.E0));
#303=DIRECTION('',(0.E0,-1.E0,0.E0));
#304=DIRECTION('',(1.E0,0.E0,0.E0));
#305=AXIS2_PLACEMENT_3D('',#302,#303,#304);
#306=PLANE('',#305);
#307=ORIENTED_EDGE('',*,*,#260,.F.);
#308=ORIENTED_EDGE('',*,*,#227,.T.);
#310=ORIENTED_EDGE('',*,*,#309,.T.);
#311=ORIENTED_EDGE('',*,*,#271,.F.);
#312=EDGE_LOOP('',(#307,#308,#310,#311));
#313=FACE_OUTER_BOUND('',#312,.F.);
#314=ADVANCED_FACE('',(#313),#306,.T.);
#315=CARTESIAN_POINT('',(3.37E1,0.E0,0.E0));
#316=DIRECTION('',(0.E0,0.E0,1.E0));
#317=DIRECTION('',(1.E0,0.E0,0.E0));
#318=AXIS2_PLACEMENT_3D('',#315,#316,#317);
#319=CYLINDRICAL_SURFACE('',#318,6.27E1);
#320=ORIENTED_EDGE('',*,*,#225,.T.);
#322=ORIENTED_EDGE('',*,*,#321,.T.);
#323=ORIENTED_EDGE('',*,*,#273,.F.);
#324=ORIENTED_EDGE('',*,*,#309,.F.);
#325=EDGE_LOOP('',(#320,#322,#323,#324));
#326=FACE_OUTER_BOUND('',#325,.F.);
#327=ADVANCED_FACE('',(#326),#319,.T.);
#328=CARTESIAN_POINT('',(3.37E1,6.27E1,0.E0));
#329=DIRECTION('',(0.E0,1.E0,0.E0));
#330=DIRECTION('',(-1.E0,0.E0,0.E0));
#331=AXIS2_PLACEMENT_3D('',#328,#329,#330);
#332=PLANE('',#331);
#334=ORIENTED_EDGE('',*,*,#333,.T.);
#335=ORIENTED_EDGE('',*,*,#275,.F.);
#336=ORIENTED_EDGE('',*,*,#321,.F.);
#337=ORIENTED_EDGE('',*,*,#223,.T.);
#338=EDGE_LOOP('',(#334,#335,#336,#337));
#339=FACE_OUTER_BOUND('',#338,.F.);
#340=ADVANCED_FACE('',(#339),#332,.T.);
#341=CARTESIAN_POINT('',(7.E0,5.57E1,2.569680050307E-1));
#342=DIRECTION('',(0.E0,0.E0,-1.E0));
#343=DIRECTION('',(-1.E0,0.E0,0.E0));
#344=AXIS2_PLACEMENT_3D('',#341,#342,#343);
#345=CYLINDRICAL_SURFACE('',#344,7.E0);
#346=ORIENTED_EDGE('',*,*,#277,.T.);
#347=ORIENTED_EDGE('',*,*,#333,.F.);
#348=ORIENTED_EDGE('',*,*,#221,.T.);
#350=ORIENTED_EDGE('',*,*,#349,.T.);
#351=EDGE_LOOP('',(#346,#347,#348,#350));
#352=FACE_OUTER_BOUND('',#351,.F.);
#353=ADVANCED_FACE('',(#352),#345,.T.);
#354=CARTESIAN_POINT('',(0.E0,6.27E1,0.E0));
#355=DIRECTION('',(-1.E0,0.E0,0.E0));
#356=DIRECTION('',(0.E0,-1.E0,0.E0));
#357=AXIS2_PLACEMENT_3D('',#354,#355,#356);
#358=PLANE('',#357);
#359=ORIENTED_EDGE('',*,*,#257,.T.);
#360=ORIENTED_EDGE('',*,*,#279,.F.);
#361=ORIENTED_EDGE('',*,*,#349,.F.);
#362=ORIENTED_EDGE('',*,*,#219,.T.);
#363=EDGE_LOOP('',(#359,#360,#361,#362));
#364=FACE_OUTER_BOUND('',#363,.F.);
#365=ADVANCED_FACE('',(#364),#358,.T.);
#366=CARTESIAN_POINT('',(7.1E0,5.565E1,0.E0));
#367=DIRECTION('',(0.E0,0.E0,1.E0));
#368=DIRECTION('',(0.E0,-1.E0,0.E0));
#369=AXIS2_PLACEMENT_3D('',#366,#367,#368);
#370=CYLINDRICAL_SURFACE('',#369,4.25E0);
#371=ORIENTED_EDGE('',*,*,#231,.F.);
#373=ORIENTED_EDGE('',*,*,#372,.T.);
#374=ORIENTED_EDGE('',*,*,#283,.T.);
#376=ORIENTED_EDGE('',*,*,#375,.F.);
#377=EDGE_LOOP('',(#371,#373,#374,#376));
#378=FACE_OUTER_BOUND('',#377,.F.);
#379=ADVANCED_FACE('',(#378),#370,.F.);
#380=CARTESIAN_POINT('',(7.1E0,5.565E1,0.E0));
#381=DIRECTION('',(0.E0,0.E0,1.E0));
#382=DIRECTION('',(0.E0,-1.E0,0.E0));
#383=AXIS2_PLACEMENT_3D('',#380,#381,#382);
#384=CYLINDRICAL_SURFACE('',#383,4.25E0);
#385=ORIENTED_EDGE('',*,*,#233,.F.);
#386=ORIENTED_EDGE('',*,*,#375,.T.);
#387=ORIENTED_EDGE('',*,*,#285,.T.);
#388=ORIENTED_EDGE('',*,*,#372,.F.);
#389=EDGE_LOOP('',(#385,#386,#387,#388));
#390=FACE_OUTER_BOUND('',#389,.F.);
#391=ADVANCED_FACE('',(#390),#384,.F.);
#392=CARTESIAN_POINT('',(7.1E0,-5.565E1,0.E0));
#393=DIRECTION('',(0.E0,0.E0,1.E0));
#394=DIRECTION('',(0.E0,-1.E0,0.E0));
#395=AXIS2_PLACEMENT_3D('',#392,#393,#394);
#396=CYLINDRICAL_SURFACE('',#395,4.25E0);
#397=ORIENTED_EDGE('',*,*,#237,.F.);
#399=ORIENTED_EDGE('',*,*,#398,.T.);
#400=ORIENTED_EDGE('',*,*,#289,.T.);
#402=ORIENTED_EDGE('',*,*,#401,.F.);
#403=EDGE_LOOP('',(#397,#399,#400,#402));
#404=FACE_OUTER_BOUND('',#403,.F.);
#405=ADVANCED_FACE('',(#404),#396,.F.);
#406=CARTESIAN_POINT('',(7.1E0,-5.565E1,0.E0));
#407=DIRECTION('',(0.E0,0.E0,1.E0));
#408=DIRECTION('',(0.E0,-1.E0,0.E0));
#409=AXIS2_PLACEMENT_3D('',#406,#407,#408);
#410=CYLINDRICAL_SURFACE('',#409,4.25E0);
#411=ORIENTED_EDGE('',*,*,#239,.F.);
#412=ORIENTED_EDGE('',*,*,#401,.T.);
#413=ORIENTED_EDGE('',*,*,#291,.T.);
#414=ORIENTED_EDGE('',*,*,#398,.F.);
#415=EDGE_LOOP('',(#411,#412,#413,#414));
#416=FACE_OUTER_BOUND('',#415,.F.);
#417=ADVANCED_FACE('',(#416),#410,.F.);
#418=CARTESIAN_POINT('',(8.94E1,0.E0,0.E0));
#419=DIRECTION('',(0.E0,0.E0,1.E0));
#420=DIRECTION('',(0.E0,-1.E0,0.E0));
#421=AXIS2_PLACEMENT_3D('',#418,#419,#420);
#422=CYLINDRICAL_SURFACE('',#421,4.25E0);
#423=ORIENTED_EDGE('',*,*,#243,.F.);
#425=ORIENTED_EDGE('',*,*,#424,.T.);
#426=ORIENTED_EDGE('',*,*,#295,.T.);
#428=ORIENTED_EDGE('',*,*,#427,.F.);
#429=EDGE_LOOP('',(#423,#425,#426,#428));
#430=FACE_OUTER_BOUND('',#429,.F.);
#431=ADVANCED_FACE('',(#430),#422,.F.);
#432=CARTESIAN_POINT('',(8.94E1,0.E0,0.E0));
#433=DIRECTION('',(0.E0,0.E0,1.E0));
#434=DIRECTION('',(0.E0,-1.E0,0.E0));
#435=AXIS2_PLACEMENT_3D('',#432,#433,#434);
#436=CYLINDRICAL_SURFACE('',#435,4.25E0);
#437=ORIENTED_EDGE('',*,*,#245,.F.);
#438=ORIENTED_EDGE('',*,*,#427,.T.);
#439=ORIENTED_EDGE('',*,*,#297,.T.);
#440=ORIENTED_EDGE('',*,*,#424,.F.);
#441=EDGE_LOOP('',(#437,#438,#439,#440));
#442=FACE_OUTER_BOUND('',#441,.F.);
#443=ADVANCED_FACE('',(#442),#436,.F.);
#444=CLOSED_SHELL('',(#249,#264,#301,#314,#327,#340,#353,#365,#379,#391,#405,
#417,#431,#443));
#445=MANIFOLD_SOLID_BREP('',#444);
#446=(LENGTH_UNIT()NAMED_UNIT(*)SI_UNIT(.MILLI.,.METRE.));
#447=DIMENSIONAL_EXPONENTS(0.E0,0.E0,0.E0,0.E0,0.E0,0.E0,0.E0);
#448=(NAMED_UNIT(*)PLANE_ANGLE_UNIT()SI_UNIT($,.RADIAN.));
#449=PLANE_ANGLE_MEASURE_WITH_UNIT(PLANE_ANGLE_MEASURE(1.745329251994E-2),#448);
#450=(CONVERSION_BASED_UNIT('DEGREE',#449)NAMED_UNIT(#447)PLANE_ANGLE_UNIT());
#451=(NAMED_UNIT(*)SI_UNIT($,.STERADIAN.)SOLID_ANGLE_UNIT());
#452=UNCERTAINTY_MEASURE_WITH_UNIT(LENGTH_MEASURE(1.642177946260E-2),#446,
'closure',
'Maximum model space distance between geometric entities at asserted connectivities');
#453=(GEOMETRIC_REPRESENTATION_CONTEXT(3)GLOBAL_UNCERTAINTY_ASSIGNED_CONTEXT((
#452))GLOBAL_UNIT_ASSIGNED_CONTEXT((#446,#450,#451))REPRESENTATION_CONTEXT
('ID1','3'));
#455=APPLICATION_CONTEXT(
'CONFIGURATION CONTROLLED 3D DESIGNS OF MECHANICAL PARTS AND ASSEMBLIES');
#456=APPLICATION_PROTOCOL_DEFINITION('international standard',
'config_control_design',1994,#455);
#457=DESIGN_CONTEXT('',#455,'design');
#458=MECHANICAL_CONTEXT('',#455,'mechanical');
#459=PRODUCT('DB007111_DECKEL_SPIEGELSAEULE','DB007111_DECKEL_SPIEGELSAEULE',
'NOT SPECIFIED',(#458));
#460=PRODUCT_DEFINITION_FORMATION_WITH_SPECIFIED_SOURCE('1','LAST_VERSION',#459,
.MADE.);
#464=PRODUCT_CATEGORY('part','');
#465=PRODUCT_RELATED_PRODUCT_CATEGORY('detail','',(#459));
#466=PRODUCT_CATEGORY_RELATIONSHIP('','',#464,#465);
#467=SECURITY_CLASSIFICATION_LEVEL('unclassified');
#468=SECURITY_CLASSIFICATION('','',#467);
#469=CC_DESIGN_SECURITY_CLASSIFICATION(#468,(#460));
#470=APPROVAL_STATUS('approved');
#471=APPROVAL(#470,'');
#472=CC_DESIGN_APPROVAL(#471,(#468,#460,#461));
#473=CALENDAR_DATE(112,26,10);
#474=COORDINATED_UNIVERSAL_TIME_OFFSET(3,0,.AHEAD.);
#475=LOCAL_TIME(14,41,3.E0,#474);
#476=DATE_AND_TIME(#473,#475);
#477=APPROVAL_DATE_TIME(#476,#471);
#478=DATE_TIME_ROLE('creation_date');
#479=CC_DESIGN_DATE_AND_TIME_ASSIGNMENT(#476,#478,(#461));
#480=DATE_TIME_ROLE('classification_date');
#481=CC_DESIGN_DATE_AND_TIME_ASSIGNMENT(#476,#480,(#468));
#482=PERSON('UNSPECIFIED','UNSPECIFIED',$,$,$,$);
#483=ORGANIZATION('UNSPECIFIED','UNSPECIFIED','UNSPECIFIED');
#484=PERSON_AND_ORGANIZATION(#482,#483);
#485=APPROVAL_ROLE('approver');
#486=APPROVAL_PERSON_ORGANIZATION(#484,#471,#485);
#487=PERSON_AND_ORGANIZATION_ROLE('creator');
#488=CC_DESIGN_PERSON_AND_ORGANIZATION_ASSIGNMENT(#484,#487,(#460,#461));
#489=PERSON_AND_ORGANIZATION_ROLE('design_supplier');
#490=CC_DESIGN_PERSON_AND_ORGANIZATION_ASSIGNMENT(#484,#489,(#460));
#491=PERSON_AND_ORGANIZATION_ROLE('classification_officer');
#492=CC_DESIGN_PERSON_AND_ORGANIZATION_ASSIGNMENT(#484,#491,(#468));
#493=PERSON_AND_ORGANIZATION_ROLE('design_owner');
#494=CC_DESIGN_PERSON_AND_ORGANIZATION_ASSIGNMENT(#484,#493,(#459));
#6=CIRCLE('',#5,7.E0);
#15=CIRCLE('',#14,7.E0);
#24=CIRCLE('',#23,6.27E1);
#33=CIRCLE('',#32,4.25E0);
#38=CIRCLE('',#37,4.25E0);
#43=CIRCLE('',#42,4.25E0);
#48=CIRCLE('',#47,4.25E0);
#53=CIRCLE('',#52,4.25E0);
#58=CIRCLE('',#57,4.25E0);
#63=CIRCLE('',#62,7.E0);
#72=CIRCLE('',#71,6.27E1);
#81=CIRCLE('',#80,7.E0);
#90=CIRCLE('',#89,4.25E0);
#95=CIRCLE('',#94,4.25E0);
#100=CIRCLE('',#99,4.25E0);
#105=CIRCLE('',#104,4.25E0);
#110=CIRCLE('',#109,4.25E0);
#115=CIRCLE('',#114,4.25E0);
#217=EDGE_CURVE('',#169,#171,#6,.T.);
#219=EDGE_CURVE('',#179,#169,#10,.T.);
#221=EDGE_CURVE('',#177,#179,#15,.T.);
#223=EDGE_CURVE('',#183,#177,#19,.T.);
#225=EDGE_CURVE('',#181,#183,#24,.T.);
#227=EDGE_CURVE('',#171,#181,#28,.T.);
#231=EDGE_CURVE('',#190,#191,#33,.T.);
#233=EDGE_CURVE('',#191,#190,#38,.T.);
#237=EDGE_CURVE('',#194,#195,#43,.T.);
#239=EDGE_CURVE('',#195,#194,#48,.T.);
#243=EDGE_CURVE('',#198,#199,#53,.T.);
#245=EDGE_CURVE('',#199,#198,#58,.T.);
#255=EDGE_CURVE('',#166,#167,#63,.T.);
#257=EDGE_CURVE('',#169,#167,#135,.T.);
#260=EDGE_CURVE('',#171,#166,#119,.T.);
#271=EDGE_CURVE('',#166,#185,#67,.T.);
#273=EDGE_CURVE('',#185,#187,#72,.T.);
#275=EDGE_CURVE('',#187,#175,#76,.T.);
#277=EDGE_CURVE('',#174,#175,#81,.T.);
#279=EDGE_CURVE('',#174,#167,#85,.T.);
#283=EDGE_CURVE('',#202,#203,#90,.T.);
#285=EDGE_CURVE('',#203,#202,#95,.T.);
#289=EDGE_CURVE('',#206,#207,#100,.T.);
#291=EDGE_CURVE('',#207,#206,#105,.T.);
#295=EDGE_CURVE('',#210,#211,#110,.T.);
#297=EDGE_CURVE('',#211,#210,#115,.T.);
#309=EDGE_CURVE('',#181,#185,#123,.T.);
#321=EDGE_CURVE('',#183,#187,#131,.T.);
#333=EDGE_CURVE('',#177,#175,#127,.T.);
#349=EDGE_CURVE('',#179,#174,#139,.T.);
#372=EDGE_CURVE('',#190,#202,#143,.T.);
#375=EDGE_CURVE('',#191,#203,#147,.T.);
#398=EDGE_CURVE('',#194,#206,#151,.T.);
#401=EDGE_CURVE('',#195,#207,#155,.T.);
#424=EDGE_CURVE('',#198,#210,#159,.T.);
#427=EDGE_CURVE('',#199,#211,#163,.T.);
#454=ADVANCED_BREP_SHAPE_REPRESENTATION('',(#445),#453);
#461=PRODUCT_DEFINITION('design','',#460,#457);
#462=PRODUCT_DEFINITION_SHAPE('','SHAPE FOR DB007111_DECKEL_SPIEGELSAEULE.',
#461);
#463=SHAPE_DEFINITION_REPRESENTATION(#462,#454);
ENDSEC;
END-ISO-10303-21;
