ISO-10303-21;
HEADER;
FILE_DESCRIPTION((''),'2;1');
FILE_NAME('04BG52','2011-03-10T',('EGoebel'),(''),
'PRO/ENGINEER BY PARAMETRIC TECHNOLOGY CORPORATION, 2006140',
'PRO/ENGINEER BY PARAMETRIC TECHNOLOGY CORPORATION, 2006140','');
FILE_SCHEMA(('CONFIG_CONTROL_DESIGN'));
ENDSEC;
DATA;
#1=COLOUR_RGB('',0.E0,0.E0,1.96E-1);
#2=COLOUR_RGB('',0.E0,0.E0,3.14E-1);
#3=COLOUR_RGB('',0.E0,1.96E-1,0.E0);
#4=COLOUR_RGB('',0.E0,3.14E-1,0.E0);
#5=COLOUR_RGB('',7.8E-2,7.8E-2,7.8E-2);
#6=COLOUR_RGB('',1.18E-1,1.18E-1,4.71E-1);
#7=COLOUR_RGB('',1.57E-1,1.57E-1,1.57E-1);
#8=COLOUR_RGB('',1.96E-1,0.E0,0.E0);
#9=COLOUR_RGB('',1.96E-1,0.E0,1.96E-1);
#10=COLOUR_RGB('',1.96E-1,5.88E-1,1.96E-1);
#11=COLOUR_RGB('',2.35E-1,2.35E-1,2.35E-1);
#12=COLOUR_RGB('',2.35E-1,2.35E-1,5.88E-1);
#13=COLOUR_RGB('',3.14E-1,3.14E-1,3.14E-1);
#14=COLOUR_RGB('',3.27543E-1,1.E0,6.33116E-1);
#15=COLOUR_RGB('',3.92E-1,0.E0,0.E0);
#16=COLOUR_RGB('',3.92E-1,0.E0,3.92E-1);
#17=COLOUR_RGB('',3.92E-1,3.92E-1,3.92E-1);
#18=COLOUR_RGB('',3.92E-1,3.92E-1,8.63E-1);
#19=COLOUR_RGB('',3.92E-1,5.88E-1,3.92E-1);
#20=COLOUR_RGB('',3.92E-1,5.88E-1,8.63E-1);
#21=COLOUR_RGB('',5.01961E-1,1.E0,5.01961E-1);
#22=COLOUR_RGB('',5.5E-1,5.6E-1,7.E-1);
#23=COLOUR_RGB('',5.88E-1,5.88E-1,5.88E-1);
#24=COLOUR_RGB('',5.88E-1,7.84E-1,5.88E-1);
#25=COLOUR_RGB('',6.2E-1,3.1E-1,6.5E-1);
#26=COLOUR_RGB('',6.8E-1,8.5E-1,1.E0);
#27=COLOUR_RGB('',8.784E-1,9.49E-1,1.E0);
#28=COLOUR_RGB('',9.8E-1,3.92E-1,0.E0);
#29=COLOUR_RGB('',9.8E-1,5.88E-1,0.E0);
#30=COLOUR_RGB('',9.8E-1,7.84E-1,0.E0);
#31=COLOUR_RGB('',1.E0,3.7E-1,3.8E-1);
#32=DRAUGHTING_PRE_DEFINED_COLOUR('white');
#33=DIRECTION('',(1.E0,0.E0,0.E0));
#34=VECTOR('',#33,2.8E1);
#35=CARTESIAN_POINT('',(0.E0,0.E0,0.E0));
#36=LINE('',#35,#34);
#37=DIRECTION('',(0.E0,1.E0,0.E0));
#38=VECTOR('',#37,5.E0);
#39=CARTESIAN_POINT('',(2.8E1,0.E0,0.E0));
#40=LINE('',#39,#38);
#41=DIRECTION('',(-1.E0,0.E0,0.E0));
#42=VECTOR('',#41,1.E1);
#43=CARTESIAN_POINT('',(2.8E1,5.E0,0.E0));
#44=LINE('',#43,#42);
#45=DIRECTION('',(0.E0,1.E0,0.E0));
#46=VECTOR('',#45,2.2E1);
#47=CARTESIAN_POINT('',(1.8E1,5.E0,0.E0));
#48=LINE('',#47,#46);
#49=DIRECTION('',(-1.E0,0.E0,0.E0));
#50=VECTOR('',#49,8.E0);
#51=CARTESIAN_POINT('',(1.8E1,2.7E1,0.E0));
#52=LINE('',#51,#50);
#53=DIRECTION('',(0.E0,-1.E0,0.E0));
#54=VECTOR('',#53,2.2E1);
#55=CARTESIAN_POINT('',(1.E1,2.7E1,0.E0));
#56=LINE('',#55,#54);
#57=DIRECTION('',(-1.E0,0.E0,0.E0));
#58=VECTOR('',#57,1.E1);
#59=CARTESIAN_POINT('',(1.E1,5.E0,0.E0));
#60=LINE('',#59,#58);
#61=DIRECTION('',(0.E0,-1.E0,0.E0));
#62=VECTOR('',#61,5.E0);
#63=CARTESIAN_POINT('',(0.E0,5.E0,0.E0));
#64=LINE('',#63,#62);
#65=DIRECTION('',(0.E0,0.E0,1.E0));
#66=VECTOR('',#65,1.E1);
#67=CARTESIAN_POINT('',(0.E0,0.E0,0.E0));
#68=LINE('',#67,#66);
#69=CARTESIAN_POINT('',(5.E0,0.E0,5.E0));
#70=DIRECTION('',(0.E0,-1.E0,0.E0));
#71=DIRECTION('',(0.E0,0.E0,1.E0));
#72=AXIS2_PLACEMENT_3D('',#69,#70,#71);
#74=CARTESIAN_POINT('',(5.E0,0.E0,5.E0));
#75=DIRECTION('',(0.E0,-1.E0,0.E0));
#76=DIRECTION('',(0.E0,0.E0,-1.E0));
#77=AXIS2_PLACEMENT_3D('',#74,#75,#76);
#79=CARTESIAN_POINT('',(2.3E1,0.E0,5.E0));
#80=DIRECTION('',(0.E0,-1.E0,0.E0));
#81=DIRECTION('',(0.E0,0.E0,1.E0));
#82=AXIS2_PLACEMENT_3D('',#79,#80,#81);
#84=CARTESIAN_POINT('',(2.3E1,0.E0,5.E0));
#85=DIRECTION('',(0.E0,-1.E0,0.E0));
#86=DIRECTION('',(0.E0,0.E0,-1.E0));
#87=AXIS2_PLACEMENT_3D('',#84,#85,#86);
#89=DIRECTION('',(0.E0,0.E0,1.E0));
#90=VECTOR('',#89,1.E1);
#91=CARTESIAN_POINT('',(0.E0,5.E0,0.E0));
#92=LINE('',#91,#90);
#93=DIRECTION('',(0.E0,0.E0,1.E0));
#94=VECTOR('',#93,1.E1);
#95=CARTESIAN_POINT('',(1.E1,5.E0,0.E0));
#96=LINE('',#95,#94);
#97=CARTESIAN_POINT('',(5.E0,5.E0,5.E0));
#98=DIRECTION('',(0.E0,-1.E0,0.E0));
#99=DIRECTION('',(0.E0,0.E0,1.E0));
#100=AXIS2_PLACEMENT_3D('',#97,#98,#99);
#102=CARTESIAN_POINT('',(5.E0,5.E0,5.E0));
#103=DIRECTION('',(0.E0,-1.E0,0.E0));
#104=DIRECTION('',(0.E0,0.E0,-1.E0));
#105=AXIS2_PLACEMENT_3D('',#102,#103,#104);
#107=DIRECTION('',(0.E0,0.E0,1.E0));
#108=VECTOR('',#107,1.E1);
#109=CARTESIAN_POINT('',(1.E1,2.7E1,0.E0));
#110=LINE('',#109,#108);
#111=DIRECTION('',(0.E0,0.E0,1.E0));
#112=VECTOR('',#111,1.E1);
#113=CARTESIAN_POINT('',(1.8E1,2.7E1,0.E0));
#114=LINE('',#113,#112);
#115=DIRECTION('',(0.E0,0.E0,1.E0));
#116=VECTOR('',#115,1.E1);
#117=CARTESIAN_POINT('',(1.8E1,5.E0,0.E0));
#118=LINE('',#117,#116);
#119=DIRECTION('',(0.E0,0.E0,1.E0));
#120=VECTOR('',#119,1.E1);
#121=CARTESIAN_POINT('',(2.8E1,5.E0,0.E0));
#122=LINE('',#121,#120);
#123=CARTESIAN_POINT('',(2.3E1,5.E0,5.E0));
#124=DIRECTION('',(0.E0,-1.E0,0.E0));
#125=DIRECTION('',(0.E0,0.E0,1.E0));
#126=AXIS2_PLACEMENT_3D('',#123,#124,#125);
#128=CARTESIAN_POINT('',(2.3E1,5.E0,5.E0));
#129=DIRECTION('',(0.E0,-1.E0,0.E0));
#130=DIRECTION('',(0.E0,0.E0,-1.E0));
#131=AXIS2_PLACEMENT_3D('',#128,#129,#130);
#133=DIRECTION('',(0.E0,0.E0,1.E0));
#134=VECTOR('',#133,1.E1);
#135=CARTESIAN_POINT('',(2.8E1,0.E0,0.E0));
#136=LINE('',#135,#134);
#137=DIRECTION('',(1.E0,0.E0,0.E0));
#138=VECTOR('',#137,2.8E1);
#139=CARTESIAN_POINT('',(0.E0,0.E0,1.E1));
#140=LINE('',#139,#138);
#141=DIRECTION('',(0.E0,-1.E0,0.E0));
#142=VECTOR('',#141,5.E0);
#143=CARTESIAN_POINT('',(0.E0,5.E0,1.E1));
#144=LINE('',#143,#142);
#145=DIRECTION('',(-1.E0,0.E0,0.E0));
#146=VECTOR('',#145,1.E1);
#147=CARTESIAN_POINT('',(1.E1,5.E0,1.E1));
#148=LINE('',#147,#146);
#149=DIRECTION('',(0.E0,-1.E0,0.E0));
#150=VECTOR('',#149,2.2E1);
#151=CARTESIAN_POINT('',(1.E1,2.7E1,1.E1));
#152=LINE('',#151,#150);
#153=DIRECTION('',(-1.E0,0.E0,0.E0));
#154=VECTOR('',#153,8.E0);
#155=CARTESIAN_POINT('',(1.8E1,2.7E1,1.E1));
#156=LINE('',#155,#154);
#157=DIRECTION('',(0.E0,1.E0,0.E0));
#158=VECTOR('',#157,2.2E1);
#159=CARTESIAN_POINT('',(1.8E1,5.E0,1.E1));
#160=LINE('',#159,#158);
#161=DIRECTION('',(-1.E0,0.E0,0.E0));
#162=VECTOR('',#161,1.E1);
#163=CARTESIAN_POINT('',(2.8E1,5.E0,1.E1));
#164=LINE('',#163,#162);
#165=DIRECTION('',(0.E0,1.E0,0.E0));
#166=VECTOR('',#165,5.E0);
#167=CARTESIAN_POINT('',(2.8E1,0.E0,1.E1));
#168=LINE('',#167,#166);
#169=DIRECTION('',(0.E0,-7.071067811865E-1,-7.071067811865E-1));
#170=VECTOR('',#169,3.111269837221E0);
#171=CARTESIAN_POINT('',(2.3E1,5.E0,9.3E0));
#172=LINE('',#171,#170);
#173=DIRECTION('',(0.E0,-7.071067811865E-1,7.071067811865E-1));
#174=VECTOR('',#173,3.111269837221E0);
#175=CARTESIAN_POINT('',(2.3E1,5.E0,7.E-1));
#176=LINE('',#175,#174);
#177=DIRECTION('',(0.E0,-1.E0,0.E0));
#178=VECTOR('',#177,2.8E0);
#179=CARTESIAN_POINT('',(2.3E1,2.8E0,2.9E0));
#180=LINE('',#179,#178);
#181=CARTESIAN_POINT('',(2.3E1,2.8E0,5.E0));
#182=DIRECTION('',(0.E0,1.E0,0.E0));
#183=DIRECTION('',(0.E0,0.E0,1.E0));
#184=AXIS2_PLACEMENT_3D('',#181,#182,#183);
#186=DIRECTION('',(0.E0,-1.E0,0.E0));
#187=VECTOR('',#186,2.8E0);
#188=CARTESIAN_POINT('',(2.3E1,2.8E0,7.1E0));
#189=LINE('',#188,#187);
#190=CARTESIAN_POINT('',(2.3E1,2.8E0,5.E0));
#191=DIRECTION('',(0.E0,-1.E0,0.E0));
#192=DIRECTION('',(0.E0,0.E0,1.E0));
#193=AXIS2_PLACEMENT_3D('',#190,#191,#192);
#195=DIRECTION('',(0.E0,-7.071067811865E-1,-7.071067811865E-1));
#196=VECTOR('',#195,3.111269837221E0);
#197=CARTESIAN_POINT('',(5.E0,5.E0,9.3E0));
#198=LINE('',#197,#196);
#199=DIRECTION('',(0.E0,-7.071067811865E-1,7.071067811865E-1));
#200=VECTOR('',#199,3.111269837221E0);
#201=CARTESIAN_POINT('',(5.E0,5.E0,7.E-1));
#202=LINE('',#201,#200);
#203=DIRECTION('',(0.E0,-1.E0,0.E0));
#204=VECTOR('',#203,2.8E0);
#205=CARTESIAN_POINT('',(5.E0,2.8E0,2.9E0));
#206=LINE('',#205,#204);
#207=CARTESIAN_POINT('',(5.E0,2.8E0,5.E0));
#208=DIRECTION('',(0.E0,1.E0,0.E0));
#209=DIRECTION('',(0.E0,0.E0,1.E0));
#210=AXIS2_PLACEMENT_3D('',#207,#208,#209);
#212=DIRECTION('',(0.E0,-1.E0,0.E0));
#213=VECTOR('',#212,2.8E0);
#214=CARTESIAN_POINT('',(5.E0,2.8E0,7.1E0));
#215=LINE('',#214,#213);
#216=CARTESIAN_POINT('',(5.E0,2.8E0,5.E0));
#217=DIRECTION('',(0.E0,-1.E0,0.E0));
#218=DIRECTION('',(0.E0,0.E0,1.E0));
#219=AXIS2_PLACEMENT_3D('',#216,#217,#218);
#221=CARTESIAN_POINT('',(0.E0,0.E0,0.E0));
#222=CARTESIAN_POINT('',(2.8E1,0.E0,0.E0));
#223=VERTEX_POINT('',#221);
#224=VERTEX_POINT('',#222);
#225=CARTESIAN_POINT('',(2.8E1,5.E0,0.E0));
#226=VERTEX_POINT('',#225);
#227=CARTESIAN_POINT('',(1.8E1,5.E0,0.E0));
#228=VERTEX_POINT('',#227);
#229=CARTESIAN_POINT('',(1.8E1,2.7E1,0.E0));
#230=VERTEX_POINT('',#229);
#231=CARTESIAN_POINT('',(1.E1,2.7E1,0.E0));
#232=VERTEX_POINT('',#231);
#233=CARTESIAN_POINT('',(1.E1,5.E0,0.E0));
#234=VERTEX_POINT('',#233);
#235=CARTESIAN_POINT('',(0.E0,5.E0,0.E0));
#236=VERTEX_POINT('',#235);
#237=CARTESIAN_POINT('',(0.E0,0.E0,1.E1));
#238=CARTESIAN_POINT('',(2.8E1,0.E0,1.E1));
#239=VERTEX_POINT('',#237);
#240=VERTEX_POINT('',#238);
#241=CARTESIAN_POINT('',(2.8E1,5.E0,1.E1));
#242=VERTEX_POINT('',#241);
#243=CARTESIAN_POINT('',(1.8E1,5.E0,1.E1));
#244=VERTEX_POINT('',#243);
#245=CARTESIAN_POINT('',(1.8E1,2.7E1,1.E1));
#246=VERTEX_POINT('',#245);
#247=CARTESIAN_POINT('',(1.E1,2.7E1,1.E1));
#248=VERTEX_POINT('',#247);
#249=CARTESIAN_POINT('',(1.E1,5.E0,1.E1));
#250=VERTEX_POINT('',#249);
#251=CARTESIAN_POINT('',(0.E0,5.E0,1.E1));
#252=VERTEX_POINT('',#251);
#253=CARTESIAN_POINT('',(5.E0,2.8E0,7.1E0));
#254=CARTESIAN_POINT('',(5.E0,2.8E0,2.9E0));
#255=VERTEX_POINT('',#253);
#256=VERTEX_POINT('',#254);
#257=CARTESIAN_POINT('',(5.E0,0.E0,7.1E0));
#258=CARTESIAN_POINT('',(5.E0,0.E0,2.9E0));
#259=VERTEX_POINT('',#257);
#260=VERTEX_POINT('',#258);
#261=CARTESIAN_POINT('',(5.E0,5.E0,9.3E0));
#262=CARTESIAN_POINT('',(5.E0,5.E0,7.E-1));
#263=VERTEX_POINT('',#261);
#264=VERTEX_POINT('',#262);
#265=CARTESIAN_POINT('',(2.3E1,2.8E0,7.1E0));
#266=CARTESIAN_POINT('',(2.3E1,2.8E0,2.9E0));
#267=VERTEX_POINT('',#265);
#268=VERTEX_POINT('',#266);
#269=CARTESIAN_POINT('',(2.3E1,0.E0,7.1E0));
#270=CARTESIAN_POINT('',(2.3E1,0.E0,2.9E0));
#271=VERTEX_POINT('',#269);
#272=VERTEX_POINT('',#270);
#273=CARTESIAN_POINT('',(2.3E1,5.E0,9.3E0));
#274=CARTESIAN_POINT('',(2.3E1,5.E0,7.E-1));
#275=VERTEX_POINT('',#273);
#276=VERTEX_POINT('',#274);
#277=CARTESIAN_POINT('',(0.E0,0.E0,0.E0));
#278=DIRECTION('',(0.E0,0.E0,1.E0));
#279=DIRECTION('',(1.E0,0.E0,0.E0));
#280=AXIS2_PLACEMENT_3D('',#277,#278,#279);
#281=PLANE('',#280);
#283=ORIENTED_EDGE('',*,*,#282,.T.);
#285=ORIENTED_EDGE('',*,*,#284,.T.);
#287=ORIENTED_EDGE('',*,*,#286,.T.);
#289=ORIENTED_EDGE('',*,*,#288,.T.);
#291=ORIENTED_EDGE('',*,*,#290,.T.);
#293=ORIENTED_EDGE('',*,*,#292,.T.);
#295=ORIENTED_EDGE('',*,*,#294,.T.);
#297=ORIENTED_EDGE('',*,*,#296,.T.);
#298=EDGE_LOOP('',(#283,#285,#287,#289,#291,#293,#295,#297));
#299=FACE_OUTER_BOUND('',#298,.F.);
#300=ADVANCED_FACE('',(#299),#281,.F.);
#301=CARTESIAN_POINT('',(0.E0,0.E0,0.E0));
#302=DIRECTION('',(0.E0,-1.E0,0.E0));
#303=DIRECTION('',(1.E0,0.E0,0.E0));
#304=AXIS2_PLACEMENT_3D('',#301,#302,#303);
#305=PLANE('',#304);
#306=ORIENTED_EDGE('',*,*,#282,.F.);
#308=ORIENTED_EDGE('',*,*,#307,.T.);
#310=ORIENTED_EDGE('',*,*,#309,.T.);
#312=ORIENTED_EDGE('',*,*,#311,.F.);
#313=EDGE_LOOP('',(#306,#308,#310,#312));
#314=FACE_OUTER_BOUND('',#313,.F.);
#316=ORIENTED_EDGE('',*,*,#315,.T.);
#318=ORIENTED_EDGE('',*,*,#317,.T.);
#319=EDGE_LOOP('',(#316,#318));
#320=FACE_BOUND('',#319,.F.);
#322=ORIENTED_EDGE('',*,*,#321,.T.);
#324=ORIENTED_EDGE('',*,*,#323,.T.);
#325=EDGE_LOOP('',(#322,#324));
#326=FACE_BOUND('',#325,.F.);
#327=ADVANCED_FACE('',(#314,#320,#326),#305,.T.);
#328=CARTESIAN_POINT('',(0.E0,5.E0,0.E0));
#329=DIRECTION('',(-1.E0,0.E0,0.E0));
#330=DIRECTION('',(0.E0,-1.E0,0.E0));
#331=AXIS2_PLACEMENT_3D('',#328,#329,#330);
#332=PLANE('',#331);
#333=ORIENTED_EDGE('',*,*,#296,.F.);
#335=ORIENTED_EDGE('',*,*,#334,.T.);
#337=ORIENTED_EDGE('',*,*,#336,.T.);
#338=ORIENTED_EDGE('',*,*,#307,.F.);
#339=EDGE_LOOP('',(#333,#335,#337,#338));
#340=FACE_OUTER_BOUND('',#339,.F.);
#341=ADVANCED_FACE('',(#340),#332,.T.);
#342=CARTESIAN_POINT('',(1.E1,5.E0,0.E0));
#343=DIRECTION('',(0.E0,1.E0,0.E0));
#344=DIRECTION('',(-1.E0,0.E0,0.E0));
#345=AXIS2_PLACEMENT_3D('',#342,#343,#344);
#346=PLANE('',#345);
#347=ORIENTED_EDGE('',*,*,#294,.F.);
#349=ORIENTED_EDGE('',*,*,#348,.T.);
#351=ORIENTED_EDGE('',*,*,#350,.T.);
#352=ORIENTED_EDGE('',*,*,#334,.F.);
#353=EDGE_LOOP('',(#347,#349,#351,#352));
#354=FACE_OUTER_BOUND('',#353,.F.);
#356=ORIENTED_EDGE('',*,*,#355,.F.);
#358=ORIENTED_EDGE('',*,*,#357,.F.);
#359=EDGE_LOOP('',(#356,#358));
#360=FACE_BOUND('',#359,.F.);
#361=ADVANCED_FACE('',(#354,#360),#346,.T.);
#362=CARTESIAN_POINT('',(1.E1,2.7E1,0.E0));
#363=DIRECTION('',(-1.E0,0.E0,0.E0));
#364=DIRECTION('',(0.E0,-1.E0,0.E0));
#365=AXIS2_PLACEMENT_3D('',#362,#363,#364);
#366=PLANE('',#365);
#367=ORIENTED_EDGE('',*,*,#292,.F.);
#369=ORIENTED_EDGE('',*,*,#368,.T.);
#371=ORIENTED_EDGE('',*,*,#370,.T.);
#372=ORIENTED_EDGE('',*,*,#348,.F.);
#373=EDGE_LOOP('',(#367,#369,#371,#372));
#374=FACE_OUTER_BOUND('',#373,.F.);
#375=ADVANCED_FACE('',(#374),#366,.T.);
#376=CARTESIAN_POINT('',(1.8E1,2.7E1,0.E0));
#377=DIRECTION('',(0.E0,1.E0,0.E0));
#378=DIRECTION('',(-1.E0,0.E0,0.E0));
#379=AXIS2_PLACEMENT_3D('',#376,#377,#378);
#380=PLANE('',#379);
#381=ORIENTED_EDGE('',*,*,#290,.F.);
#383=ORIENTED_EDGE('',*,*,#382,.T.);
#385=ORIENTED_EDGE('',*,*,#384,.T.);
#386=ORIENTED_EDGE('',*,*,#368,.F.);
#387=EDGE_LOOP('',(#381,#383,#385,#386));
#388=FACE_OUTER_BOUND('',#387,.F.);
#389=ADVANCED_FACE('',(#388),#380,.T.);
#390=CARTESIAN_POINT('',(1.8E1,5.E0,0.E0));
#391=DIRECTION('',(1.E0,0.E0,0.E0));
#392=DIRECTION('',(0.E0,1.E0,0.E0));
#393=AXIS2_PLACEMENT_3D('',#390,#391,#392);
#394=PLANE('',#393);
#395=ORIENTED_EDGE('',*,*,#288,.F.);
#397=ORIENTED_EDGE('',*,*,#396,.T.);
#399=ORIENTED_EDGE('',*,*,#398,.T.);
#400=ORIENTED_EDGE('',*,*,#382,.F.);
#401=EDGE_LOOP('',(#395,#397,#399,#400));
#402=FACE_OUTER_BOUND('',#401,.F.);
#403=ADVANCED_FACE('',(#402),#394,.T.);
#404=CARTESIAN_POINT('',(2.8E1,5.E0,0.E0));
#405=DIRECTION('',(0.E0,1.E0,0.E0));
#406=DIRECTION('',(-1.E0,0.E0,0.E0));
#407=AXIS2_PLACEMENT_3D('',#404,#405,#406);
#408=PLANE('',#407);
#409=ORIENTED_EDGE('',*,*,#286,.F.);
#411=ORIENTED_EDGE('',*,*,#410,.T.);
#413=ORIENTED_EDGE('',*,*,#412,.T.);
#414=ORIENTED_EDGE('',*,*,#396,.F.);
#415=EDGE_LOOP('',(#409,#411,#413,#414));
#416=FACE_OUTER_BOUND('',#415,.F.);
#418=ORIENTED_EDGE('',*,*,#417,.F.);
#420=ORIENTED_EDGE('',*,*,#419,.F.);
#421=EDGE_LOOP('',(#418,#420));
#422=FACE_BOUND('',#421,.F.);
#423=ADVANCED_FACE('',(#416,#422),#408,.T.);
#424=CARTESIAN_POINT('',(2.8E1,0.E0,0.E0));
#425=DIRECTION('',(1.E0,0.E0,0.E0));
#426=DIRECTION('',(0.E0,1.E0,0.E0));
#427=AXIS2_PLACEMENT_3D('',#424,#425,#426);
#428=PLANE('',#427);
#429=ORIENTED_EDGE('',*,*,#284,.F.);
#430=ORIENTED_EDGE('',*,*,#311,.T.);
#432=ORIENTED_EDGE('',*,*,#431,.T.);
#433=ORIENTED_EDGE('',*,*,#410,.F.);
#434=EDGE_LOOP('',(#429,#430,#432,#433));
#435=FACE_OUTER_BOUND('',#434,.F.);
#436=ADVANCED_FACE('',(#435),#428,.T.);
#437=CARTESIAN_POINT('',(0.E0,0.E0,1.E1));
#438=DIRECTION('',(0.E0,0.E0,1.E0));
#439=DIRECTION('',(1.E0,0.E0,0.E0));
#440=AXIS2_PLACEMENT_3D('',#437,#438,#439);
#441=PLANE('',#440);
#442=ORIENTED_EDGE('',*,*,#309,.F.);
#443=ORIENTED_EDGE('',*,*,#336,.F.);
#444=ORIENTED_EDGE('',*,*,#350,.F.);
#445=ORIENTED_EDGE('',*,*,#370,.F.);
#446=ORIENTED_EDGE('',*,*,#384,.F.);
#447=ORIENTED_EDGE('',*,*,#398,.F.);
#448=ORIENTED_EDGE('',*,*,#412,.F.);
#449=ORIENTED_EDGE('',*,*,#431,.F.);
#450=EDGE_LOOP('',(#442,#443,#444,#445,#446,#447,#448,#449));
#451=FACE_OUTER_BOUND('',#450,.F.);
#452=ADVANCED_FACE('',(#451),#441,.T.);
#453=CARTESIAN_POINT('',(2.3E1,3.9E0,5.E0));
#454=DIRECTION('',(0.E0,1.E0,0.E0));
#455=DIRECTION('',(0.E0,0.E0,-1.E0));
#456=AXIS2_PLACEMENT_3D('',#453,#454,#455);
#457=CONICAL_SURFACE('',#456,3.2E0,4.5E1);
#458=ORIENTED_EDGE('',*,*,#417,.T.);
#460=ORIENTED_EDGE('',*,*,#459,.T.);
#462=ORIENTED_EDGE('',*,*,#461,.F.);
#464=ORIENTED_EDGE('',*,*,#463,.F.);
#465=EDGE_LOOP('',(#458,#460,#462,#464));
#466=FACE_OUTER_BOUND('',#465,.F.);
#467=ADVANCED_FACE('',(#466),#457,.F.);
#468=CARTESIAN_POINT('',(2.3E1,3.9E0,5.E0));
#469=DIRECTION('',(0.E0,1.E0,0.E0));
#470=DIRECTION('',(0.E0,0.E0,-1.E0));
#471=AXIS2_PLACEMENT_3D('',#468,#469,#470);
#472=CONICAL_SURFACE('',#471,3.2E0,4.5E1);
#473=ORIENTED_EDGE('',*,*,#419,.T.);
#474=ORIENTED_EDGE('',*,*,#463,.T.);
#476=ORIENTED_EDGE('',*,*,#475,.T.);
#477=ORIENTED_EDGE('',*,*,#459,.F.);
#478=EDGE_LOOP('',(#473,#474,#476,#477));
#479=FACE_OUTER_BOUND('',#478,.F.);
#480=ADVANCED_FACE('',(#479),#472,.F.);
#481=CARTESIAN_POINT('',(2.3E1,5.25E0,5.E0));
#482=DIRECTION('',(0.E0,-1.E0,0.E0));
#483=DIRECTION('',(0.E0,0.E0,1.E0));
#484=AXIS2_PLACEMENT_3D('',#481,#482,#483);
#485=CYLINDRICAL_SURFACE('',#484,2.1E0);
#486=ORIENTED_EDGE('',*,*,#323,.F.);
#488=ORIENTED_EDGE('',*,*,#487,.F.);
#489=ORIENTED_EDGE('',*,*,#475,.F.);
#491=ORIENTED_EDGE('',*,*,#490,.T.);
#492=EDGE_LOOP('',(#486,#488,#489,#491));
#493=FACE_OUTER_BOUND('',#492,.F.);
#494=ADVANCED_FACE('',(#493),#485,.F.);
#495=CARTESIAN_POINT('',(2.3E1,5.25E0,5.E0));
#496=DIRECTION('',(0.E0,-1.E0,0.E0));
#497=DIRECTION('',(0.E0,0.E0,1.E0));
#498=AXIS2_PLACEMENT_3D('',#495,#496,#497);
#499=CYLINDRICAL_SURFACE('',#498,2.1E0);
#500=ORIENTED_EDGE('',*,*,#321,.F.);
#501=ORIENTED_EDGE('',*,*,#490,.F.);
#502=ORIENTED_EDGE('',*,*,#461,.T.);
#503=ORIENTED_EDGE('',*,*,#487,.T.);
#504=EDGE_LOOP('',(#500,#501,#502,#503));
#505=FACE_OUTER_BOUND('',#504,.F.);
#506=ADVANCED_FACE('',(#505),#499,.F.);
#507=CARTESIAN_POINT('',(5.E0,3.9E0,5.E0));
#508=DIRECTION('',(0.E0,1.E0,0.E0));
#509=DIRECTION('',(0.E0,0.E0,-1.E0));
#510=AXIS2_PLACEMENT_3D('',#507,#508,#509);
#511=CONICAL_SURFACE('',#510,3.2E0,4.5E1);
#512=ORIENTED_EDGE('',*,*,#355,.T.);
#514=ORIENTED_EDGE('',*,*,#513,.T.);
#516=ORIENTED_EDGE('',*,*,#515,.F.);
#518=ORIENTED_EDGE('',*,*,#517,.F.);
#519=EDGE_LOOP('',(#512,#514,#516,#518));
#520=FACE_OUTER_BOUND('',#519,.F.);
#521=ADVANCED_FACE('',(#520),#511,.F.);
#522=CARTESIAN_POINT('',(5.E0,3.9E0,5.E0));
#523=DIRECTION('',(0.E0,1.E0,0.E0));
#524=DIRECTION('',(0.E0,0.E0,-1.E0));
#525=AXIS2_PLACEMENT_3D('',#522,#523,#524);
#526=CONICAL_SURFACE('',#525,3.2E0,4.5E1);
#527=ORIENTED_EDGE('',*,*,#357,.T.);
#528=ORIENTED_EDGE('',*,*,#517,.T.);
#530=ORIENTED_EDGE('',*,*,#529,.T.);
#531=ORIENTED_EDGE('',*,*,#513,.F.);
#532=EDGE_LOOP('',(#527,#528,#530,#531));
#533=FACE_OUTER_BOUND('',#532,.F.);
#534=ADVANCED_FACE('',(#533),#526,.F.);
#535=CARTESIAN_POINT('',(5.E0,5.25E0,5.E0));
#536=DIRECTION('',(0.E0,-1.E0,0.E0));
#537=DIRECTION('',(0.E0,0.E0,1.E0));
#538=AXIS2_PLACEMENT_3D('',#535,#536,#537);
#539=CYLINDRICAL_SURFACE('',#538,2.1E0);
#540=ORIENTED_EDGE('',*,*,#317,.F.);
#542=ORIENTED_EDGE('',*,*,#541,.F.);
#543=ORIENTED_EDGE('',*,*,#529,.F.);
#545=ORIENTED_EDGE('',*,*,#544,.T.);
#546=EDGE_LOOP('',(#540,#542,#543,#545));
#547=FACE_OUTER_BOUND('',#546,.F.);
#548=ADVANCED_FACE('',(#547),#539,.F.);
#549=CARTESIAN_POINT('',(5.E0,5.25E0,5.E0));
#550=DIRECTION('',(0.E0,-1.E0,0.E0));
#551=DIRECTION('',(0.E0,0.E0,1.E0));
#552=AXIS2_PLACEMENT_3D('',#549,#550,#551);
#553=CYLINDRICAL_SURFACE('',#552,2.1E0);
#554=ORIENTED_EDGE('',*,*,#315,.F.);
#555=ORIENTED_EDGE('',*,*,#544,.F.);
#556=ORIENTED_EDGE('',*,*,#515,.T.);
#557=ORIENTED_EDGE('',*,*,#541,.T.);
#558=EDGE_LOOP('',(#554,#555,#556,#557));
#559=FACE_OUTER_BOUND('',#558,.F.);
#560=ADVANCED_FACE('',(#559),#553,.F.);
#561=CLOSED_SHELL('',(#300,#327,#341,#361,#375,#389,#403,#423,#436,#452,#467,
#480,#494,#506,#521,#534,#548,#560));
#562=MANIFOLD_SOLID_BREP('',#561);
#563=(LENGTH_UNIT()NAMED_UNIT(*)SI_UNIT(.MILLI.,.METRE.));
#564=DIMENSIONAL_EXPONENTS(0.E0,0.E0,0.E0,0.E0,0.E0,0.E0,0.E0);
#565=(NAMED_UNIT(*)PLANE_ANGLE_UNIT()SI_UNIT($,.RADIAN.));
#566=PLANE_ANGLE_MEASURE_WITH_UNIT(PLANE_ANGLE_MEASURE(1.745329251994E-2),#565);
#567=(CONVERSION_BASED_UNIT('DEGREE',#566)NAMED_UNIT(#564)PLANE_ANGLE_UNIT());
#568=(NAMED_UNIT(*)SI_UNIT($,.STERADIAN.)SOLID_ANGLE_UNIT());
#569=UNCERTAINTY_MEASURE_WITH_UNIT(LENGTH_MEASURE(4.081613302930E-3),#563,
'closure',
'Maximum model space distance between geometric entities at asserted connectivities');
#570=(GEOMETRIC_REPRESENTATION_CONTEXT(3)GLOBAL_UNCERTAINTY_ASSIGNED_CONTEXT((
#569))GLOBAL_UNIT_ASSIGNED_CONTEXT((#563,#567,#568))REPRESENTATION_CONTEXT
('ID1','3'));
#572=APPLICATION_CONTEXT(
'CONFIGURATION CONTROLLED 3D DESIGNS OF MECHANICAL PARTS AND ASSEMBLIES');
#573=APPLICATION_PROTOCOL_DEFINITION('international standard',
'config_control_design',1994,#572);
#574=DESIGN_CONTEXT('',#572,'design');
#575=MECHANICAL_CONTEXT('',#572,'mechanical');
#576=PRODUCT('04BG52','04BG52','NOT SPECIFIED',(#575));
#577=PRODUCT_DEFINITION_FORMATION_WITH_SPECIFIED_SOURCE('','LAST_VERSION',#576,
.MADE.);
#581=PRODUCT_CATEGORY('part','');
#582=PRODUCT_RELATED_PRODUCT_CATEGORY('detail','',(#576));
#583=PRODUCT_CATEGORY_RELATIONSHIP('','',#581,#582);
#584=SECURITY_CLASSIFICATION_LEVEL('unclassified');
#585=SECURITY_CLASSIFICATION('','',#584);
#586=CC_DESIGN_SECURITY_CLASSIFICATION(#585,(#577));
#587=APPROVAL_STATUS('approved');
#588=APPROVAL(#587,'');
#589=CC_DESIGN_APPROVAL(#588,(#585,#577,#578));
#590=CALENDAR_DATE(111,10,3);
#591=COORDINATED_UNIVERSAL_TIME_OFFSET(1,0,.AHEAD.);
#592=LOCAL_TIME(10,0,8.E0,#591);
#593=DATE_AND_TIME(#590,#592);
#594=APPROVAL_DATE_TIME(#593,#588);
#595=DATE_TIME_ROLE('creation_date');
#596=CC_DESIGN_DATE_AND_TIME_ASSIGNMENT(#593,#595,(#578));
#597=DATE_TIME_ROLE('classification_date');
#598=CC_DESIGN_DATE_AND_TIME_ASSIGNMENT(#593,#597,(#585));
#599=PERSON('UNSPECIFIED','UNSPECIFIED',$,$,$,$);
#600=ORGANIZATION('UNSPECIFIED','UNSPECIFIED','UNSPECIFIED');
#601=PERSON_AND_ORGANIZATION(#599,#600);
#602=APPROVAL_ROLE('approver');
#603=APPROVAL_PERSON_ORGANIZATION(#601,#588,#602);
#604=PERSON_AND_ORGANIZATION_ROLE('creator');
#605=CC_DESIGN_PERSON_AND_ORGANIZATION_ASSIGNMENT(#601,#604,(#577,#578));
#606=PERSON_AND_ORGANIZATION_ROLE('design_supplier');
#607=CC_DESIGN_PERSON_AND_ORGANIZATION_ASSIGNMENT(#601,#606,(#577));
#608=PERSON_AND_ORGANIZATION_ROLE('classification_officer');
#609=CC_DESIGN_PERSON_AND_ORGANIZATION_ASSIGNMENT(#601,#608,(#585));
#610=PERSON_AND_ORGANIZATION_ROLE('design_owner');
#611=CC_DESIGN_PERSON_AND_ORGANIZATION_ASSIGNMENT(#601,#610,(#576));
#73=CIRCLE('',#72,2.1E0);
#78=CIRCLE('',#77,2.1E0);
#83=CIRCLE('',#82,2.1E0);
#88=CIRCLE('',#87,2.1E0);
#101=CIRCLE('',#100,4.3E0);
#106=CIRCLE('',#105,4.3E0);
#127=CIRCLE('',#126,4.3E0);
#132=CIRCLE('',#131,4.3E0);
#185=CIRCLE('',#184,2.1E0);
#194=CIRCLE('',#193,2.1E0);
#211=CIRCLE('',#210,2.1E0);
#220=CIRCLE('',#219,2.1E0);
#282=EDGE_CURVE('',#223,#224,#36,.T.);
#284=EDGE_CURVE('',#224,#226,#40,.T.);
#286=EDGE_CURVE('',#226,#228,#44,.T.);
#288=EDGE_CURVE('',#228,#230,#48,.T.);
#290=EDGE_CURVE('',#230,#232,#52,.T.);
#292=EDGE_CURVE('',#232,#234,#56,.T.);
#294=EDGE_CURVE('',#234,#236,#60,.T.);
#296=EDGE_CURVE('',#236,#223,#64,.T.);
#307=EDGE_CURVE('',#223,#239,#68,.T.);
#309=EDGE_CURVE('',#239,#240,#140,.T.);
#311=EDGE_CURVE('',#224,#240,#136,.T.);
#315=EDGE_CURVE('',#259,#260,#73,.T.);
#317=EDGE_CURVE('',#260,#259,#78,.T.);
#321=EDGE_CURVE('',#271,#272,#83,.T.);
#323=EDGE_CURVE('',#272,#271,#88,.T.);
#334=EDGE_CURVE('',#236,#252,#92,.T.);
#336=EDGE_CURVE('',#252,#239,#144,.T.);
#348=EDGE_CURVE('',#234,#250,#96,.T.);
#350=EDGE_CURVE('',#250,#252,#148,.T.);
#355=EDGE_CURVE('',#263,#264,#101,.T.);
#357=EDGE_CURVE('',#264,#263,#106,.T.);
#368=EDGE_CURVE('',#232,#248,#110,.T.);
#370=EDGE_CURVE('',#248,#250,#152,.T.);
#382=EDGE_CURVE('',#230,#246,#114,.T.);
#384=EDGE_CURVE('',#246,#248,#156,.T.);
#396=EDGE_CURVE('',#228,#244,#118,.T.);
#398=EDGE_CURVE('',#244,#246,#160,.T.);
#410=EDGE_CURVE('',#226,#242,#122,.T.);
#412=EDGE_CURVE('',#242,#244,#164,.T.);
#417=EDGE_CURVE('',#275,#276,#127,.T.);
#419=EDGE_CURVE('',#276,#275,#132,.T.);
#431=EDGE_CURVE('',#240,#242,#168,.T.);
#459=EDGE_CURVE('',#276,#268,#176,.T.);
#461=EDGE_CURVE('',#267,#268,#194,.T.);
#463=EDGE_CURVE('',#275,#267,#172,.T.);
#475=EDGE_CURVE('',#267,#268,#185,.T.);
#487=EDGE_CURVE('',#268,#272,#180,.T.);
#490=EDGE_CURVE('',#267,#271,#189,.T.);
#513=EDGE_CURVE('',#264,#256,#202,.T.);
#515=EDGE_CURVE('',#255,#256,#220,.T.);
#517=EDGE_CURVE('',#263,#255,#198,.T.);
#529=EDGE_CURVE('',#255,#256,#211,.T.);
#541=EDGE_CURVE('',#256,#260,#206,.T.);
#544=EDGE_CURVE('',#255,#259,#215,.T.);
#571=ADVANCED_BREP_SHAPE_REPRESENTATION('',(#562),#570);
#578=PRODUCT_DEFINITION('design','',#577,#574);
#579=PRODUCT_DEFINITION_SHAPE('','SHAPE FOR 04BG52.',#578);
#580=SHAPE_DEFINITION_REPRESENTATION(#579,#571);
ENDSEC;
END-ISO-10303-21;
