ISO-10303-21;
HEADER;
FILE_DESCRIPTION((''),'2;1');
FILE_NAME('DM_CAD-2089','2015-03-16T',('Creinig-se'),(''),
'PRO/ENGINEER BY PARAMETRIC TECHNOLOGY CORPORATION, 2013050',
'PRO/ENGINEER BY PARAMETRIC TECHNOLOGY CORPORATION, 2013050','');
FILE_SCHEMA(('CONFIG_CONTROL_DESIGN'));
ENDSEC;
DATA;
#36=CARTESIAN_POINT('',(0.E0,0.E0,4.5E0));
#37=DIRECTION('',(0.E0,0.E0,-1.E0));
#38=DIRECTION('',(1.E0,0.E0,0.E0));
#39=AXIS2_PLACEMENT_3D('',#36,#37,#38);
#41=DRAUGHTING_PRE_DEFINED_CURVE_FONT('continuous');
#42=CURVE_STYLE('',#41,POSITIVE_LENGTH_MEASURE(2.E-2),#5);
#43=PRESENTATION_STYLE_ASSIGNMENT((#42));
#44=STYLED_ITEM('',(#43),#40);
#45=CARTESIAN_POINT('',(0.E0,0.E0,4.5E0));
#46=DIRECTION('',(0.E0,0.E0,-1.E0));
#47=DIRECTION('',(-1.E0,0.E0,0.E0));
#48=AXIS2_PLACEMENT_3D('',#45,#46,#47);
#50=CURVE_STYLE('',#41,POSITIVE_LENGTH_MEASURE(2.E-2),#5);
#51=PRESENTATION_STYLE_ASSIGNMENT((#50));
#52=STYLED_ITEM('',(#51),#49);
#53=CARTESIAN_POINT('',(0.E0,0.E0,4.2E0));
#54=DIRECTION('',(0.E0,0.E0,-1.E0));
#55=DIRECTION('',(1.E0,0.E0,0.E0));
#56=AXIS2_PLACEMENT_3D('',#53,#54,#55);
#58=CURVE_STYLE('',#41,POSITIVE_LENGTH_MEASURE(2.E-2),#5);
#59=PRESENTATION_STYLE_ASSIGNMENT((#58));
#60=STYLED_ITEM('',(#59),#57);
#61=DIRECTION('',(7.071067811865E-1,0.E0,-7.071067811865E-1));
#62=VECTOR('',#61,4.242640687119E-1);
#63=CARTESIAN_POINT('',(4.7E0,0.E0,4.5E0));
#64=LINE('',#63,#62);
#65=CURVE_STYLE('',#41,POSITIVE_LENGTH_MEASURE(2.E-2),#5);
#66=PRESENTATION_STYLE_ASSIGNMENT((#65));
#67=STYLED_ITEM('',(#66),#64);
#68=DIRECTION('',(0.E0,0.E0,1.E0));
#69=VECTOR('',#68,4.2E0);
#70=CARTESIAN_POINT('',(-5.E0,0.E0,0.E0));
#71=LINE('',#70,#69);
#72=CURVE_STYLE('',#41,POSITIVE_LENGTH_MEASURE(2.E-2),#5);
#73=PRESENTATION_STYLE_ASSIGNMENT((#72));
#74=STYLED_ITEM('',(#73),#71);
#75=DIRECTION('',(0.E0,0.E0,1.E0));
#76=VECTOR('',#75,4.2E0);
#77=CARTESIAN_POINT('',(5.E0,0.E0,0.E0));
#78=LINE('',#77,#76);
#79=CURVE_STYLE('',#41,POSITIVE_LENGTH_MEASURE(2.E-2),#5);
#80=PRESENTATION_STYLE_ASSIGNMENT((#79));
#81=STYLED_ITEM('',(#80),#78);
#82=CARTESIAN_POINT('',(0.E0,0.E0,4.2E0));
#83=DIRECTION('',(0.E0,0.E0,-1.E0));
#84=DIRECTION('',(-1.E0,0.E0,0.E0));
#85=AXIS2_PLACEMENT_3D('',#82,#83,#84);
#87=CURVE_STYLE('',#41,POSITIVE_LENGTH_MEASURE(2.E-2),#5);
#88=PRESENTATION_STYLE_ASSIGNMENT((#87));
#89=STYLED_ITEM('',(#88),#86);
#90=DIRECTION('',(-7.071067811865E-1,1.043015047489E-14,-7.071067811865E-1));
#91=VECTOR('',#90,4.242640687119E-1);
#92=CARTESIAN_POINT('',(-4.7E0,0.E0,4.5E0));
#93=LINE('',#92,#91);
#94=CURVE_STYLE('',#41,POSITIVE_LENGTH_MEASURE(2.E-2),#5);
#95=PRESENTATION_STYLE_ASSIGNMENT((#94));
#96=STYLED_ITEM('',(#95),#93);
#97=CARTESIAN_POINT('',(0.E0,0.E0,0.E0));
#98=DIRECTION('',(0.E0,0.E0,1.E0));
#99=DIRECTION('',(-1.E0,0.E0,0.E0));
#100=AXIS2_PLACEMENT_3D('',#97,#98,#99);
#102=CURVE_STYLE('',#41,POSITIVE_LENGTH_MEASURE(2.E-2),#5);
#103=PRESENTATION_STYLE_ASSIGNMENT((#102));
#104=STYLED_ITEM('',(#103),#101);
#105=CARTESIAN_POINT('',(0.E0,0.E0,0.E0));
#106=DIRECTION('',(0.E0,0.E0,1.E0));
#107=DIRECTION('',(1.E0,0.E0,0.E0));
#108=AXIS2_PLACEMENT_3D('',#105,#106,#107);
#110=CURVE_STYLE('',#41,POSITIVE_LENGTH_MEASURE(2.E-2),#5);
#111=PRESENTATION_STYLE_ASSIGNMENT((#110));
#112=STYLED_ITEM('',(#111),#109);
#113=CARTESIAN_POINT('',(4.7E0,0.E0,4.5E0));
#114=CARTESIAN_POINT('',(-4.7E0,-1.101168042708E-14,4.5E0));
#115=VERTEX_POINT('',#113);
#116=VERTEX_POINT('',#114);
#117=CARTESIAN_POINT('',(5.E0,0.E0,4.2E0));
#118=CARTESIAN_POINT('',(-5.E0,0.E0,4.2E0));
#119=VERTEX_POINT('',#117);
#120=VERTEX_POINT('',#118);
#121=CARTESIAN_POINT('',(5.E0,0.E0,0.E0));
#122=VERTEX_POINT('',#121);
#123=CARTESIAN_POINT('',(-5.E0,0.E0,0.E0));
#124=VERTEX_POINT('',#123);
#125=CARTESIAN_POINT('',(0.E0,0.E0,4.5E0));
#126=DIRECTION('',(0.E0,0.E0,1.E0));
#127=DIRECTION('',(-1.E0,0.E0,0.E0));
#128=AXIS2_PLACEMENT_3D('',#125,#126,#127);
#129=PLANE('',#128);
#131=ORIENTED_EDGE('',*,*,#130,.T.);
#133=ORIENTED_EDGE('',*,*,#132,.T.);
#134=EDGE_LOOP('',(#131,#133));
#135=FACE_OUTER_BOUND('',#134,.F.);
#136=ADVANCED_FACE('',(#135),#129,.T.);
#137=CARTESIAN_POINT('',(0.E0,0.E0,4.35E0));
#138=DIRECTION('',(0.E0,0.E0,-1.E0));
#139=DIRECTION('',(1.E0,0.E0,0.E0));
#140=AXIS2_PLACEMENT_3D('',#137,#138,#139);
#141=CONICAL_SURFACE('',#140,4.85E0,4.5E1);
#143=ORIENTED_EDGE('',*,*,#142,.T.);
#145=ORIENTED_EDGE('',*,*,#144,.F.);
#146=ORIENTED_EDGE('',*,*,#130,.F.);
#148=ORIENTED_EDGE('',*,*,#147,.T.);
#149=EDGE_LOOP('',(#143,#145,#146,#148));
#150=FACE_OUTER_BOUND('',#149,.F.);
#151=ADVANCED_FACE('',(#150),#141,.T.);
#152=CARTESIAN_POINT('',(0.E0,0.E0,-2.25E-1));
#153=DIRECTION('',(0.E0,0.E0,1.E0));
#154=DIRECTION('',(-1.E0,0.E0,0.E0));
#155=AXIS2_PLACEMENT_3D('',#152,#153,#154);
#156=CYLINDRICAL_SURFACE('',#155,5.E0);
#158=ORIENTED_EDGE('',*,*,#157,.F.);
#160=ORIENTED_EDGE('',*,*,#159,.F.);
#162=ORIENTED_EDGE('',*,*,#161,.T.);
#163=ORIENTED_EDGE('',*,*,#142,.F.);
#164=EDGE_LOOP('',(#158,#160,#162,#163));
#165=FACE_OUTER_BOUND('',#164,.F.);
#166=ADVANCED_FACE('',(#165),#156,.T.);
#167=CARTESIAN_POINT('',(0.E0,0.E0,-2.25E-1));
#168=DIRECTION('',(0.E0,0.E0,1.E0));
#169=DIRECTION('',(-1.E0,0.E0,0.E0));
#170=AXIS2_PLACEMENT_3D('',#167,#168,#169);
#171=CYLINDRICAL_SURFACE('',#170,5.E0);
#172=ORIENTED_EDGE('',*,*,#157,.T.);
#174=ORIENTED_EDGE('',*,*,#173,.F.);
#175=ORIENTED_EDGE('',*,*,#161,.F.);
#177=ORIENTED_EDGE('',*,*,#176,.F.);
#178=EDGE_LOOP('',(#172,#174,#175,#177));
#179=FACE_OUTER_BOUND('',#178,.F.);
#180=ADVANCED_FACE('',(#179),#171,.T.);
#181=CARTESIAN_POINT('',(0.E0,0.E0,4.35E0));
#182=DIRECTION('',(0.E0,0.E0,-1.E0));
#183=DIRECTION('',(1.E0,0.E0,0.E0));
#184=AXIS2_PLACEMENT_3D('',#181,#182,#183);
#185=CONICAL_SURFACE('',#184,4.85E0,4.5E1);
#186=ORIENTED_EDGE('',*,*,#173,.T.);
#187=ORIENTED_EDGE('',*,*,#147,.F.);
#188=ORIENTED_EDGE('',*,*,#132,.F.);
#189=ORIENTED_EDGE('',*,*,#144,.T.);
#190=EDGE_LOOP('',(#186,#187,#188,#189));
#191=FACE_OUTER_BOUND('',#190,.F.);
#192=ADVANCED_FACE('',(#191),#185,.T.);
#193=CARTESIAN_POINT('',(0.E0,0.E0,0.E0));
#194=DIRECTION('',(0.E0,0.E0,1.E0));
#195=DIRECTION('',(-1.E0,0.E0,0.E0));
#196=AXIS2_PLACEMENT_3D('',#193,#194,#195);
#197=PLANE('',#196);
#198=ORIENTED_EDGE('',*,*,#159,.T.);
#199=ORIENTED_EDGE('',*,*,#176,.T.);
#200=EDGE_LOOP('',(#198,#199));
#201=FACE_OUTER_BOUND('',#200,.F.);
#202=ADVANCED_FACE('',(#201),#197,.F.);
#203=CLOSED_SHELL('',(#136,#151,#166,#180,#192,#202));
#204=MANIFOLD_SOLID_BREP('',#203);
#205=FILL_AREA_STYLE_COLOUR('',#5);
#206=FILL_AREA_STYLE('',(#205));
#207=SURFACE_STYLE_FILL_AREA(#206);
#208=SURFACE_SIDE_STYLE('',(#207));
#209=SURFACE_STYLE_USAGE(.BOTH.,#208);
#210=PRESENTATION_STYLE_ASSIGNMENT((#209));
#35=STYLED_ITEM('',(#210),#204);
#212=DIMENSIONAL_EXPONENTS(0.E0,0.E0,0.E0,0.E0,0.E0,0.E0,0.E0);
#214=PLANE_ANGLE_MEASURE_WITH_UNIT(PLANE_ANGLE_MEASURE(1.745329251994E-2),#213);
#215=(CONVERSION_BASED_UNIT('DEGREE',#214)NAMED_UNIT(*)PLANE_ANGLE_UNIT());
#217=UNCERTAINTY_MEASURE_WITH_UNIT(LENGTH_MEASURE(1.484484645833E-3),#211,
'closure',
'Maximum model space distance between geometric entities at asserted connectivities');
#218=(GEOMETRIC_REPRESENTATION_CONTEXT(3)GLOBAL_UNCERTAINTY_ASSIGNED_CONTEXT((
#217))GLOBAL_UNIT_ASSIGNED_CONTEXT((#211,#215,#216))REPRESENTATION_CONTEXT
('ID1','3'));
#220=MECHANICAL_DESIGN_GEOMETRIC_PRESENTATION_REPRESENTATION('',(#44,#52,#60,
#67,#74,#81,#89,#96,#104,#112,#35),#218);
#221=APPLICATION_CONTEXT(
'CONFIGURATION CONTROLLED 3D DESIGNS OF MECHANICAL PARTS AND ASSEMBLIES');
#222=APPLICATION_PROTOCOL_DEFINITION('international standard',
'config_control_design',1994,#221);
#223=DESIGN_CONTEXT('',#221,'design');
#224=MECHANICAL_CONTEXT('',#221,'mechanical');
#225=PRODUCT('DM_CAD-2089','DM_CAD-2089','NOT SPECIFIED',(#224));
#226=PRODUCT_DEFINITION_FORMATION_WITH_SPECIFIED_SOURCE('1','LAST_VERSION',#225,
.MADE.);
#230=PRODUCT_CATEGORY('part','');
#231=PRODUCT_RELATED_PRODUCT_CATEGORY('detail','',(#225));
#232=PRODUCT_CATEGORY_RELATIONSHIP('','',#230,#231);
#233=SECURITY_CLASSIFICATION_LEVEL('unclassified');
#234=SECURITY_CLASSIFICATION('','',#233);
#235=CC_DESIGN_SECURITY_CLASSIFICATION(#234,(#226));
#236=APPROVAL_STATUS('approved');
#237=APPROVAL(#236,'');
#238=CC_DESIGN_APPROVAL(#237,(#234,#226,#227));
#239=CALENDAR_DATE(115,16,3);
#240=COORDINATED_UNIVERSAL_TIME_OFFSET(1,0,.AHEAD.);
#241=LOCAL_TIME(8,6,2.E1,#240);
#242=DATE_AND_TIME(#239,#241);
#243=APPROVAL_DATE_TIME(#242,#237);
#244=DATE_TIME_ROLE('creation_date');
#245=CC_DESIGN_DATE_AND_TIME_ASSIGNMENT(#242,#244,(#227));
#246=DATE_TIME_ROLE('classification_date');
#247=CC_DESIGN_DATE_AND_TIME_ASSIGNMENT(#242,#246,(#234));
#248=PERSON('UNSPECIFIED','UNSPECIFIED',$,$,$,$);
#249=ORGANIZATION('UNSPECIFIED','UNSPECIFIED','UNSPECIFIED');
#250=PERSON_AND_ORGANIZATION(#248,#249);
#251=APPROVAL_ROLE('approver');
#252=APPROVAL_PERSON_ORGANIZATION(#250,#237,#251);
#253=PERSON_AND_ORGANIZATION_ROLE('creator');
#254=CC_DESIGN_PERSON_AND_ORGANIZATION_ASSIGNMENT(#250,#253,(#226,#227));
#255=PERSON_AND_ORGANIZATION_ROLE('design_supplier');
#256=CC_DESIGN_PERSON_AND_ORGANIZATION_ASSIGNMENT(#250,#255,(#226));
#257=PERSON_AND_ORGANIZATION_ROLE('classification_officer');
#258=CC_DESIGN_PERSON_AND_ORGANIZATION_ASSIGNMENT(#250,#257,(#234));
#259=PERSON_AND_ORGANIZATION_ROLE('design_owner');
#260=CC_DESIGN_PERSON_AND_ORGANIZATION_ASSIGNMENT(#250,#259,(#225));
#1=COLOUR_RGB('',0.E0,0.E0,1.96E-1);
#2=COLOUR_RGB('',0.E0,0.E0,3.14E-1);
#3=COLOUR_RGB('',0.E0,1.96E-1,0.E0);
#4=COLOUR_RGB('',0.E0,3.14E-1,0.E0);
#5=COLOUR_RGB('',0.E0,6.470588235294E-1,5.294117647059E-1);
#6=COLOUR_RGB('',7.8E-2,7.8E-2,7.8E-2);
#7=COLOUR_RGB('',1.18E-1,1.18E-1,4.71E-1);
#8=COLOUR_RGB('',1.57E-1,1.57E-1,1.57E-1);
#9=COLOUR_RGB('',1.96E-1,0.E0,0.E0);
#10=COLOUR_RGB('',1.96E-1,0.E0,1.96E-1);
#11=COLOUR_RGB('',1.96E-1,5.88E-1,1.96E-1);
#12=COLOUR_RGB('',2.35E-1,2.35E-1,2.35E-1);
#13=COLOUR_RGB('',2.35E-1,2.35E-1,5.88E-1);
#14=COLOUR_RGB('',3.14E-1,3.14E-1,3.14E-1);
#15=COLOUR_RGB('',3.27543E-1,1.E0,6.33116E-1);
#16=COLOUR_RGB('',3.92E-1,0.E0,0.E0);
#17=COLOUR_RGB('',3.92E-1,0.E0,3.92E-1);
#18=COLOUR_RGB('',3.92E-1,3.92E-1,3.92E-1);
#19=COLOUR_RGB('',3.92E-1,3.92E-1,8.63E-1);
#20=COLOUR_RGB('',3.92E-1,5.88E-1,3.92E-1);
#21=COLOUR_RGB('',3.92E-1,5.88E-1,8.63E-1);
#22=COLOUR_RGB('',5.01961E-1,1.E0,5.01961E-1);
#23=COLOUR_RGB('',5.5E-1,5.6E-1,7.E-1);
#24=COLOUR_RGB('',5.88E-1,5.88E-1,5.88E-1);
#25=COLOUR_RGB('',5.88E-1,7.84E-1,5.88E-1);
#26=COLOUR_RGB('',6.2E-1,3.1E-1,6.5E-1);
#27=COLOUR_RGB('',6.8E-1,8.5E-1,1.E0);
#28=COLOUR_RGB('',6.952E-1,7.426E-1,7.9E-1);
#29=COLOUR_RGB('',8.784313725490E-1,9.490196078431E-1,1.E0);
#30=COLOUR_RGB('',9.8E-1,3.92E-1,0.E0);
#31=COLOUR_RGB('',9.8E-1,5.88E-1,0.E0);
#32=COLOUR_RGB('',9.8E-1,7.84E-1,0.E0);
#33=COLOUR_RGB('',1.E0,3.7E-1,3.8E-1);
#34=DRAUGHTING_PRE_DEFINED_COLOUR('white');
#40=CIRCLE('',#39,4.7E0);
#49=CIRCLE('',#48,4.7E0);
#57=CIRCLE('',#56,5.E0);
#86=CIRCLE('',#85,5.E0);
#101=CIRCLE('',#100,5.E0);
#109=CIRCLE('',#108,5.E0);
#130=EDGE_CURVE('',#115,#116,#40,.T.);
#132=EDGE_CURVE('',#116,#115,#49,.T.);
#142=EDGE_CURVE('',#119,#120,#57,.T.);
#144=EDGE_CURVE('',#116,#120,#93,.T.);
#147=EDGE_CURVE('',#115,#119,#64,.T.);
#157=EDGE_CURVE('',#122,#119,#78,.T.);
#159=EDGE_CURVE('',#124,#122,#101,.T.);
#161=EDGE_CURVE('',#124,#120,#71,.T.);
#173=EDGE_CURVE('',#120,#119,#86,.T.);
#176=EDGE_CURVE('',#122,#124,#109,.T.);
#211=(LENGTH_UNIT()NAMED_UNIT(*)SI_UNIT(.MILLI.,.METRE.));
#213=(NAMED_UNIT(*)PLANE_ANGLE_UNIT()SI_UNIT($,.RADIAN.));
#216=(NAMED_UNIT(*)SI_UNIT($,.STERADIAN.)SOLID_ANGLE_UNIT());
#219=ADVANCED_BREP_SHAPE_REPRESENTATION('',(#204),#218);
#227=PRODUCT_DEFINITION('design','',#226,#223);
#228=PRODUCT_DEFINITION_SHAPE('','SHAPE FOR DM_CAD-2089.',#227);
#229=SHAPE_DEFINITION_REPRESENTATION(#228,#219);
ENDSEC;
END-ISO-10303-21;
