ISO-10303-21;
HEADER;
FILE_DESCRIPTION((''),'2;1');
FILE_NAME('DM_CAD-2093','2015-03-20T',('Creinig-se'),(''),
'PRO/ENGINEER BY PARAMETRIC TECHNOLOGY CORPORATION, 2013050',
'PRO/ENGINEER BY PARAMETRIC TECHNOLOGY CORPORATION, 2013050','');
FILE_SCHEMA(('CONFIG_CONTROL_DESIGN'));
ENDSEC;
DATA;
#35=CARTESIAN_POINT('',(-1.1E1,-6.1E0,0.E0));
#36=DIRECTION('',(0.E0,0.E0,1.E0));
#37=DIRECTION('',(1.E0,0.E0,0.E0));
#38=AXIS2_PLACEMENT_3D('',#35,#36,#37);
#40=DIRECTION('',(0.E0,0.E0,-1.E0));
#41=VECTOR('',#40,8.E0);
#42=CARTESIAN_POINT('',(-1.325E1,-6.1E0,8.E0));
#43=LINE('',#42,#41);
#44=CARTESIAN_POINT('',(-1.1E1,-6.1E0,8.E0));
#45=DIRECTION('',(0.E0,0.E0,-1.E0));
#46=DIRECTION('',(-1.E0,0.E0,0.E0));
#47=AXIS2_PLACEMENT_3D('',#44,#45,#46);
#49=DIRECTION('',(0.E0,0.E0,1.E0));
#50=VECTOR('',#49,8.E0);
#51=CARTESIAN_POINT('',(-8.75E0,-6.1E0,0.E0));
#52=LINE('',#51,#50);
#53=DIRECTION('',(0.E0,1.E0,0.E0));
#54=VECTOR('',#53,2.62E1);
#55=CARTESIAN_POINT('',(1.8E1,-1.31E1,0.E0));
#56=LINE('',#55,#54);
#57=DIRECTION('',(1.E0,0.E0,0.E0));
#58=VECTOR('',#57,3.6E1);
#59=CARTESIAN_POINT('',(-1.8E1,1.31E1,0.E0));
#60=LINE('',#59,#58);
#61=DIRECTION('',(0.E0,1.E0,0.E0));
#62=VECTOR('',#61,2.62E1);
#63=CARTESIAN_POINT('',(-1.8E1,-1.31E1,0.E0));
#64=LINE('',#63,#62);
#65=DIRECTION('',(1.E0,0.E0,0.E0));
#66=VECTOR('',#65,3.6E1);
#67=CARTESIAN_POINT('',(-1.8E1,-1.31E1,0.E0));
#68=LINE('',#67,#66);
#69=CARTESIAN_POINT('',(-1.1E1,-6.1E0,0.E0));
#70=DIRECTION('',(0.E0,0.E0,1.E0));
#71=DIRECTION('',(-1.E0,0.E0,0.E0));
#72=AXIS2_PLACEMENT_3D('',#69,#70,#71);
#74=CARTESIAN_POINT('',(1.1E1,-6.1E0,1.8E-14));
#75=DIRECTION('',(0.E0,0.E0,1.E0));
#76=DIRECTION('',(-1.E0,0.E0,0.E0));
#77=AXIS2_PLACEMENT_3D('',#74,#75,#76);
#79=DIRECTION('',(0.E0,-1.E0,0.E0));
#80=VECTOR('',#79,2.62E1);
#81=CARTESIAN_POINT('',(1.8E1,1.31E1,1.3E1));
#82=LINE('',#81,#80);
#83=DIRECTION('',(0.E0,0.E0,-1.E0));
#84=VECTOR('',#83,1.3E1);
#85=CARTESIAN_POINT('',(1.8E1,-1.31E1,1.3E1));
#86=LINE('',#85,#84);
#87=DIRECTION('',(1.E0,0.E0,0.E0));
#88=VECTOR('',#87,3.6E1);
#89=CARTESIAN_POINT('',(-1.8E1,-1.31E1,1.3E1));
#90=LINE('',#89,#88);
#91=DIRECTION('',(0.E0,-1.E0,0.E0));
#92=VECTOR('',#91,2.62E1);
#93=CARTESIAN_POINT('',(-1.8E1,1.31E1,1.3E1));
#94=LINE('',#93,#92);
#95=DIRECTION('',(0.E0,0.E0,-1.E0));
#96=VECTOR('',#95,1.3E1);
#97=CARTESIAN_POINT('',(-1.8E1,-1.31E1,1.3E1));
#98=LINE('',#97,#96);
#99=DIRECTION('',(-1.E0,0.E0,0.E0));
#100=VECTOR('',#99,3.6E1);
#101=CARTESIAN_POINT('',(1.8E1,1.31E1,1.3E1));
#102=LINE('',#101,#100);
#103=DIRECTION('',(0.E0,0.E0,1.E0));
#104=VECTOR('',#103,1.3E1);
#105=CARTESIAN_POINT('',(-1.8E1,1.31E1,0.E0));
#106=LINE('',#105,#104);
#107=DIRECTION('',(0.E0,0.E0,1.E0));
#108=VECTOR('',#107,1.3E1);
#109=CARTESIAN_POINT('',(1.8E1,1.31E1,0.E0));
#110=LINE('',#109,#108);
#111=CARTESIAN_POINT('',(-1.1E1,-6.1E0,1.3E1));
#112=DIRECTION('',(0.E0,0.E0,-1.E0));
#113=DIRECTION('',(1.E0,0.E0,0.E0));
#114=AXIS2_PLACEMENT_3D('',#111,#112,#113);
#116=CARTESIAN_POINT('',(-1.1E1,-6.1E0,8.E0));
#117=DIRECTION('',(0.E0,0.E0,1.E0));
#118=DIRECTION('',(1.E0,0.E0,0.E0));
#119=AXIS2_PLACEMENT_3D('',#116,#117,#118);
#121=DIRECTION('',(0.E0,0.E0,-1.E0));
#122=VECTOR('',#121,5.E0);
#123=CARTESIAN_POINT('',(-1.525E1,-6.1E0,1.3E1));
#124=LINE('',#123,#122);
#125=CARTESIAN_POINT('',(-1.1E1,-6.1E0,1.3E1));
#126=DIRECTION('',(0.E0,0.E0,-1.E0));
#127=DIRECTION('',(-1.E0,0.E0,0.E0));
#128=AXIS2_PLACEMENT_3D('',#125,#126,#127);
#130=DIRECTION('',(0.E0,0.E0,1.E0));
#131=VECTOR('',#130,5.E0);
#132=CARTESIAN_POINT('',(-6.75E0,-6.1E0,8.E0));
#133=LINE('',#132,#131);
#134=CARTESIAN_POINT('',(-1.1E1,-6.1E0,8.E0));
#135=DIRECTION('',(0.E0,0.E0,-1.E0));
#136=DIRECTION('',(1.E0,0.E0,0.E0));
#137=AXIS2_PLACEMENT_3D('',#134,#135,#136);
#139=CARTESIAN_POINT('',(-1.1E1,-6.1E0,8.E0));
#140=DIRECTION('',(0.E0,0.E0,1.E0));
#141=DIRECTION('',(-1.E0,0.E0,0.E0));
#142=AXIS2_PLACEMENT_3D('',#139,#140,#141);
#144=CARTESIAN_POINT('',(1.1E1,-6.1E0,1.3E1));
#145=DIRECTION('',(0.E0,0.E0,-1.E0));
#146=DIRECTION('',(1.E0,0.E0,0.E0));
#147=AXIS2_PLACEMENT_3D('',#144,#145,#146);
#149=CARTESIAN_POINT('',(1.1E1,-6.1E0,8.E0));
#150=DIRECTION('',(0.E0,0.E0,1.E0));
#151=DIRECTION('',(1.E0,0.E0,0.E0));
#152=AXIS2_PLACEMENT_3D('',#149,#150,#151);
#154=DIRECTION('',(0.E0,0.E0,-1.E0));
#155=VECTOR('',#154,5.E0);
#156=CARTESIAN_POINT('',(6.75E0,-6.1E0,1.3E1));
#157=LINE('',#156,#155);
#158=CARTESIAN_POINT('',(1.1E1,-6.1E0,1.3E1));
#159=DIRECTION('',(0.E0,0.E0,-1.E0));
#160=DIRECTION('',(-1.E0,0.E0,0.E0));
#161=AXIS2_PLACEMENT_3D('',#158,#159,#160);
#163=DIRECTION('',(0.E0,0.E0,1.E0));
#164=VECTOR('',#163,5.E0);
#165=CARTESIAN_POINT('',(1.525E1,-6.1E0,8.E0));
#166=LINE('',#165,#164);
#167=CARTESIAN_POINT('',(1.1E1,-6.1E0,8.E0));
#168=DIRECTION('',(0.E0,0.E0,-1.E0));
#169=DIRECTION('',(1.E0,0.E0,0.E0));
#170=AXIS2_PLACEMENT_3D('',#167,#168,#169);
#172=CARTESIAN_POINT('',(1.1E1,-6.1E0,8.E0));
#173=DIRECTION('',(0.E0,0.E0,1.E0));
#174=DIRECTION('',(-1.E0,0.E0,0.E0));
#175=AXIS2_PLACEMENT_3D('',#172,#173,#174);
#177=CARTESIAN_POINT('',(1.1E1,-6.1E0,1.8E-14));
#178=DIRECTION('',(0.E0,0.E0,1.E0));
#179=DIRECTION('',(1.E0,0.E0,0.E0));
#180=AXIS2_PLACEMENT_3D('',#177,#178,#179);
#182=DIRECTION('',(0.E0,0.E0,-1.E0));
#183=VECTOR('',#182,8.E0);
#184=CARTESIAN_POINT('',(8.75E0,-6.1E0,8.E0));
#185=LINE('',#184,#183);
#186=CARTESIAN_POINT('',(1.1E1,-6.1E0,8.E0));
#187=DIRECTION('',(0.E0,0.E0,-1.E0));
#188=DIRECTION('',(-1.E0,0.E0,0.E0));
#189=AXIS2_PLACEMENT_3D('',#186,#187,#188);
#191=DIRECTION('',(0.E0,0.E0,1.E0));
#192=VECTOR('',#191,8.E0);
#193=CARTESIAN_POINT('',(1.325E1,-6.1E0,0.E0));
#194=LINE('',#193,#192);
#195=CARTESIAN_POINT('',(-1.325E1,-6.1E0,8.E0));
#196=CARTESIAN_POINT('',(-1.325E1,-6.1E0,0.E0));
#197=VERTEX_POINT('',#195);
#198=VERTEX_POINT('',#196);
#199=CARTESIAN_POINT('',(-8.75E0,-6.1E0,0.E0));
#200=CARTESIAN_POINT('',(-8.75E0,-6.1E0,8.E0));
#201=VERTEX_POINT('',#199);
#202=VERTEX_POINT('',#200);
#203=CARTESIAN_POINT('',(-1.8E1,1.31E1,0.E0));
#204=CARTESIAN_POINT('',(1.8E1,1.31E1,0.E0));
#205=VERTEX_POINT('',#203);
#206=VERTEX_POINT('',#204);
#207=CARTESIAN_POINT('',(-1.8E1,-1.31E1,0.E0));
#208=VERTEX_POINT('',#207);
#209=CARTESIAN_POINT('',(1.325E1,-6.1E0,1.575E-14));
#210=CARTESIAN_POINT('',(8.75E0,-6.1E0,2.025E-14));
#211=VERTEX_POINT('',#209);
#212=VERTEX_POINT('',#210);
#213=CARTESIAN_POINT('',(1.8E1,1.31E1,1.3E1));
#214=CARTESIAN_POINT('',(1.8E1,-1.31E1,1.3E1));
#215=VERTEX_POINT('',#213);
#216=VERTEX_POINT('',#214);
#217=CARTESIAN_POINT('',(1.8E1,-1.31E1,0.E0));
#218=VERTEX_POINT('',#217);
#219=CARTESIAN_POINT('',(-1.8E1,1.31E1,1.3E1));
#220=CARTESIAN_POINT('',(-1.8E1,-1.31E1,1.3E1));
#221=VERTEX_POINT('',#219);
#222=VERTEX_POINT('',#220);
#223=CARTESIAN_POINT('',(-6.75E0,-6.1E0,1.3E1));
#224=CARTESIAN_POINT('',(-1.525E1,-6.1E0,1.3E1));
#225=VERTEX_POINT('',#223);
#226=VERTEX_POINT('',#224);
#227=CARTESIAN_POINT('',(1.525E1,-6.1E0,1.3E1));
#228=CARTESIAN_POINT('',(6.75E0,-6.1E0,1.3E1));
#229=VERTEX_POINT('',#227);
#230=VERTEX_POINT('',#228);
#231=CARTESIAN_POINT('',(-1.525E1,-6.1E0,8.E0));
#232=VERTEX_POINT('',#231);
#233=CARTESIAN_POINT('',(-6.75E0,-6.1E0,8.E0));
#234=VERTEX_POINT('',#233);
#235=CARTESIAN_POINT('',(6.75E0,-6.1E0,8.E0));
#236=VERTEX_POINT('',#235);
#237=CARTESIAN_POINT('',(1.525E1,-6.1E0,8.E0));
#238=VERTEX_POINT('',#237);
#239=CARTESIAN_POINT('',(8.75E0,-6.1E0,8.E0));
#240=CARTESIAN_POINT('',(1.325E1,-6.1E0,8.E0));
#241=VERTEX_POINT('',#239);
#242=VERTEX_POINT('',#240);
#243=CARTESIAN_POINT('',(-1.1E1,-6.1E0,0.E0));
#244=DIRECTION('',(0.E0,0.E0,1.E0));
#245=DIRECTION('',(-1.E0,0.E0,0.E0));
#246=AXIS2_PLACEMENT_3D('',#243,#244,#245);
#247=CYLINDRICAL_SURFACE('',#246,2.25E0);
#249=ORIENTED_EDGE('',*,*,#248,.T.);
#251=ORIENTED_EDGE('',*,*,#250,.F.);
#253=ORIENTED_EDGE('',*,*,#252,.T.);
#255=ORIENTED_EDGE('',*,*,#254,.F.);
#256=EDGE_LOOP('',(#249,#251,#253,#255));
#257=FACE_OUTER_BOUND('',#256,.F.);
#258=ADVANCED_FACE('',(#257),#247,.F.);
#259=FILL_AREA_STYLE_COLOUR('',#5);
#260=FILL_AREA_STYLE('',(#259));
#261=SURFACE_STYLE_FILL_AREA(#260);
#262=SURFACE_SIDE_STYLE('',(#261));
#263=SURFACE_STYLE_USAGE(.BOTH.,#262);
#264=PRESENTATION_STYLE_ASSIGNMENT((#263));
#265=STYLED_ITEM('',(#264),#258);
#266=CARTESIAN_POINT('',(-1.8E1,-1.31E1,0.E0));
#267=DIRECTION('',(0.E0,0.E0,1.E0));
#268=DIRECTION('',(0.E0,-1.E0,0.E0));
#269=AXIS2_PLACEMENT_3D('',#266,#267,#268);
#270=PLANE('',#269);
#272=ORIENTED_EDGE('',*,*,#271,.T.);
#274=ORIENTED_EDGE('',*,*,#273,.F.);
#276=ORIENTED_EDGE('',*,*,#275,.F.);
#278=ORIENTED_EDGE('',*,*,#277,.T.);
#279=EDGE_LOOP('',(#272,#274,#276,#278));
#280=FACE_OUTER_BOUND('',#279,.F.);
#281=ORIENTED_EDGE('',*,*,#248,.F.);
#283=ORIENTED_EDGE('',*,*,#282,.F.);
#284=EDGE_LOOP('',(#281,#283));
#285=FACE_BOUND('',#284,.F.);
#287=ORIENTED_EDGE('',*,*,#286,.F.);
#289=ORIENTED_EDGE('',*,*,#288,.F.);
#290=EDGE_LOOP('',(#287,#289));
#291=FACE_BOUND('',#290,.F.);
#292=ADVANCED_FACE('',(#280,#285,#291),#270,.F.);
#293=FILL_AREA_STYLE_COLOUR('',#5);
#294=FILL_AREA_STYLE('',(#293));
#295=SURFACE_STYLE_FILL_AREA(#294);
#296=SURFACE_SIDE_STYLE('',(#295));
#297=SURFACE_STYLE_USAGE(.BOTH.,#296);
#298=PRESENTATION_STYLE_ASSIGNMENT((#297));
#299=STYLED_ITEM('',(#298),#292);
#300=CARTESIAN_POINT('',(1.8E1,-1.31E1,2.9E-14));
#301=DIRECTION('',(-1.E0,0.E0,0.E0));
#302=DIRECTION('',(0.E0,0.E0,-1.E0));
#303=AXIS2_PLACEMENT_3D('',#300,#301,#302);
#304=PLANE('',#303);
#306=ORIENTED_EDGE('',*,*,#305,.F.);
#308=ORIENTED_EDGE('',*,*,#307,.F.);
#309=ORIENTED_EDGE('',*,*,#271,.F.);
#311=ORIENTED_EDGE('',*,*,#310,.F.);
#312=EDGE_LOOP('',(#306,#308,#309,#311));
#313=FACE_OUTER_BOUND('',#312,.F.);
#314=ADVANCED_FACE('',(#313),#304,.F.);
#315=FILL_AREA_STYLE_COLOUR('',#5);
#316=FILL_AREA_STYLE('',(#315));
#317=SURFACE_STYLE_FILL_AREA(#316);
#318=SURFACE_SIDE_STYLE('',(#317));
#319=SURFACE_STYLE_USAGE(.BOTH.,#318);
#320=PRESENTATION_STYLE_ASSIGNMENT((#319));
#321=STYLED_ITEM('',(#320),#314);
#322=CARTESIAN_POINT('',(1.8E1,-1.31E1,1.3E1));
#323=DIRECTION('',(0.E0,0.E0,-1.E0));
#324=DIRECTION('',(1.E0,0.E0,0.E0));
#325=AXIS2_PLACEMENT_3D('',#322,#323,#324);
#326=PLANE('',#325);
#328=ORIENTED_EDGE('',*,*,#327,.F.);
#330=ORIENTED_EDGE('',*,*,#329,.F.);
#331=ORIENTED_EDGE('',*,*,#305,.T.);
#333=ORIENTED_EDGE('',*,*,#332,.F.);
#334=EDGE_LOOP('',(#328,#330,#331,#333));
#335=FACE_OUTER_BOUND('',#334,.F.);
#337=ORIENTED_EDGE('',*,*,#336,.F.);
#339=ORIENTED_EDGE('',*,*,#338,.F.);
#340=EDGE_LOOP('',(#337,#339));
#341=FACE_BOUND('',#340,.F.);
#343=ORIENTED_EDGE('',*,*,#342,.F.);
#345=ORIENTED_EDGE('',*,*,#344,.F.);
#346=EDGE_LOOP('',(#343,#345));
#347=FACE_BOUND('',#346,.F.);
#348=ADVANCED_FACE('',(#335,#341,#347),#326,.F.);
#349=FILL_AREA_STYLE_COLOUR('',#5);
#350=FILL_AREA_STYLE('',(#349));
#351=SURFACE_STYLE_FILL_AREA(#350);
#352=SURFACE_SIDE_STYLE('',(#351));
#353=SURFACE_STYLE_USAGE(.BOTH.,#352);
#354=PRESENTATION_STYLE_ASSIGNMENT((#353));
#355=STYLED_ITEM('',(#354),#348);
#356=CARTESIAN_POINT('',(-1.8E1,-1.31E1,0.E0));
#357=DIRECTION('',(1.E0,0.E0,0.E0));
#358=DIRECTION('',(0.E0,1.E0,0.E0));
#359=AXIS2_PLACEMENT_3D('',#356,#357,#358);
#360=PLANE('',#359);
#361=ORIENTED_EDGE('',*,*,#275,.T.);
#363=ORIENTED_EDGE('',*,*,#362,.T.);
#364=ORIENTED_EDGE('',*,*,#327,.T.);
#366=ORIENTED_EDGE('',*,*,#365,.T.);
#367=EDGE_LOOP('',(#361,#363,#364,#366));
#368=FACE_OUTER_BOUND('',#367,.F.);
#369=ADVANCED_FACE('',(#368),#360,.F.);
#370=FILL_AREA_STYLE_COLOUR('',#5);
#371=FILL_AREA_STYLE('',(#370));
#372=SURFACE_STYLE_FILL_AREA(#371);
#373=SURFACE_SIDE_STYLE('',(#372));
#374=SURFACE_STYLE_USAGE(.BOTH.,#373);
#375=PRESENTATION_STYLE_ASSIGNMENT((#374));
#376=STYLED_ITEM('',(#375),#369);
#377=CARTESIAN_POINT('',(-1.8E1,1.31E1,1.3E1));
#378=DIRECTION('',(0.E0,-1.E0,0.E0));
#379=DIRECTION('',(0.E0,0.E0,-1.E0));
#380=AXIS2_PLACEMENT_3D('',#377,#378,#379);
#381=PLANE('',#380);
#382=ORIENTED_EDGE('',*,*,#329,.T.);
#383=ORIENTED_EDGE('',*,*,#362,.F.);
#384=ORIENTED_EDGE('',*,*,#273,.T.);
#385=ORIENTED_EDGE('',*,*,#307,.T.);
#386=EDGE_LOOP('',(#382,#383,#384,#385));
#387=FACE_OUTER_BOUND('',#386,.F.);
#388=ADVANCED_FACE('',(#387),#381,.F.);
#389=FILL_AREA_STYLE_COLOUR('',#5);
#390=FILL_AREA_STYLE('',(#389));
#391=SURFACE_STYLE_FILL_AREA(#390);
#392=SURFACE_SIDE_STYLE('',(#391));
#393=SURFACE_STYLE_USAGE(.BOTH.,#392);
#394=PRESENTATION_STYLE_ASSIGNMENT((#393));
#395=STYLED_ITEM('',(#394),#388);
#396=CARTESIAN_POINT('',(-1.8E1,-1.31E1,1.3E1));
#397=DIRECTION('',(0.E0,-1.E0,0.E0));
#398=DIRECTION('',(0.E0,0.E0,-1.E0));
#399=AXIS2_PLACEMENT_3D('',#396,#397,#398);
#400=PLANE('',#399);
#401=ORIENTED_EDGE('',*,*,#310,.T.);
#402=ORIENTED_EDGE('',*,*,#277,.F.);
#403=ORIENTED_EDGE('',*,*,#365,.F.);
#404=ORIENTED_EDGE('',*,*,#332,.T.);
#405=EDGE_LOOP('',(#401,#402,#403,#404));
#406=FACE_OUTER_BOUND('',#405,.F.);
#407=ADVANCED_FACE('',(#406),#400,.T.);
#408=FILL_AREA_STYLE_COLOUR('',#5);
#409=FILL_AREA_STYLE('',(#408));
#410=SURFACE_STYLE_FILL_AREA(#409);
#411=SURFACE_SIDE_STYLE('',(#410));
#412=SURFACE_STYLE_USAGE(.BOTH.,#411);
#413=PRESENTATION_STYLE_ASSIGNMENT((#412));
#414=STYLED_ITEM('',(#413),#407);
#415=CARTESIAN_POINT('',(-1.1E1,-6.1E0,8.E0));
#416=DIRECTION('',(0.E0,0.E0,1.E0));
#417=DIRECTION('',(-1.E0,0.E0,0.E0));
#418=AXIS2_PLACEMENT_3D('',#415,#416,#417);
#419=CYLINDRICAL_SURFACE('',#418,4.25E0);
#421=ORIENTED_EDGE('',*,*,#420,.T.);
#422=ORIENTED_EDGE('',*,*,#336,.T.);
#424=ORIENTED_EDGE('',*,*,#423,.T.);
#426=ORIENTED_EDGE('',*,*,#425,.T.);
#427=EDGE_LOOP('',(#421,#422,#424,#426));
#428=FACE_OUTER_BOUND('',#427,.F.);
#429=ADVANCED_FACE('',(#428),#419,.F.);
#430=FILL_AREA_STYLE_COLOUR('',#5);
#431=FILL_AREA_STYLE('',(#430));
#432=SURFACE_STYLE_FILL_AREA(#431);
#433=SURFACE_SIDE_STYLE('',(#432));
#434=SURFACE_STYLE_USAGE(.BOTH.,#433);
#435=PRESENTATION_STYLE_ASSIGNMENT((#434));
#436=STYLED_ITEM('',(#435),#429);
#437=CARTESIAN_POINT('',(-1.1E1,-6.1E0,8.E0));
#438=DIRECTION('',(0.E0,0.E0,1.E0));
#439=DIRECTION('',(-1.E0,0.E0,0.E0));
#440=AXIS2_PLACEMENT_3D('',#437,#438,#439);
#441=CYLINDRICAL_SURFACE('',#440,4.25E0);
#443=ORIENTED_EDGE('',*,*,#442,.T.);
#444=ORIENTED_EDGE('',*,*,#423,.F.);
#445=ORIENTED_EDGE('',*,*,#338,.T.);
#446=ORIENTED_EDGE('',*,*,#420,.F.);
#447=EDGE_LOOP('',(#443,#444,#445,#446));
#448=FACE_OUTER_BOUND('',#447,.F.);
#449=ADVANCED_FACE('',(#448),#441,.F.);
#450=FILL_AREA_STYLE_COLOUR('',#5);
#451=FILL_AREA_STYLE('',(#450));
#452=SURFACE_STYLE_FILL_AREA(#451);
#453=SURFACE_SIDE_STYLE('',(#452));
#454=SURFACE_STYLE_USAGE(.BOTH.,#453);
#455=PRESENTATION_STYLE_ASSIGNMENT((#454));
#456=STYLED_ITEM('',(#455),#449);
#457=CARTESIAN_POINT('',(-1.1E1,-6.1E0,8.E0));
#458=DIRECTION('',(0.E0,0.E0,1.E0));
#459=DIRECTION('',(0.E0,-1.E0,0.E0));
#460=AXIS2_PLACEMENT_3D('',#457,#458,#459);
#461=PLANE('',#460);
#462=ORIENTED_EDGE('',*,*,#425,.F.);
#463=ORIENTED_EDGE('',*,*,#442,.F.);
#464=EDGE_LOOP('',(#462,#463));
#465=FACE_OUTER_BOUND('',#464,.F.);
#466=ORIENTED_EDGE('',*,*,#252,.F.);
#468=ORIENTED_EDGE('',*,*,#467,.F.);
#469=EDGE_LOOP('',(#466,#468));
#470=FACE_BOUND('',#469,.F.);
#471=ADVANCED_FACE('',(#465,#470),#461,.T.);
#472=FILL_AREA_STYLE_COLOUR('',#5);
#473=FILL_AREA_STYLE('',(#472));
#474=SURFACE_STYLE_FILL_AREA(#473);
#475=SURFACE_SIDE_STYLE('',(#474));
#476=SURFACE_STYLE_USAGE(.BOTH.,#475);
#477=PRESENTATION_STYLE_ASSIGNMENT((#476));
#478=STYLED_ITEM('',(#477),#471);
#479=CARTESIAN_POINT('',(-1.1E1,-6.1E0,0.E0));
#480=DIRECTION('',(0.E0,0.E0,1.E0));
#481=DIRECTION('',(-1.E0,0.E0,0.E0));
#482=AXIS2_PLACEMENT_3D('',#479,#480,#481);
#483=CYLINDRICAL_SURFACE('',#482,2.25E0);
#484=ORIENTED_EDGE('',*,*,#254,.T.);
#485=ORIENTED_EDGE('',*,*,#467,.T.);
#486=ORIENTED_EDGE('',*,*,#250,.T.);
#487=ORIENTED_EDGE('',*,*,#282,.T.);
#488=EDGE_LOOP('',(#484,#485,#486,#487));
#489=FACE_OUTER_BOUND('',#488,.F.);
#490=ADVANCED_FACE('',(#489),#483,.F.);
#491=FILL_AREA_STYLE_COLOUR('',#5);
#492=FILL_AREA_STYLE('',(#491));
#493=SURFACE_STYLE_FILL_AREA(#492);
#494=SURFACE_SIDE_STYLE('',(#493));
#495=SURFACE_STYLE_USAGE(.BOTH.,#494);
#496=PRESENTATION_STYLE_ASSIGNMENT((#495));
#497=STYLED_ITEM('',(#496),#490);
#498=CARTESIAN_POINT('',(1.1E1,-6.1E0,8.E0));
#499=DIRECTION('',(0.E0,0.E0,1.E0));
#500=DIRECTION('',(-1.E0,0.E0,0.E0));
#501=AXIS2_PLACEMENT_3D('',#498,#499,#500);
#502=CYLINDRICAL_SURFACE('',#501,4.25E0);
#504=ORIENTED_EDGE('',*,*,#503,.T.);
#505=ORIENTED_EDGE('',*,*,#342,.T.);
#507=ORIENTED_EDGE('',*,*,#506,.T.);
#509=ORIENTED_EDGE('',*,*,#508,.T.);
#510=EDGE_LOOP('',(#504,#505,#507,#509));
#511=FACE_OUTER_BOUND('',#510,.F.);
#512=ADVANCED_FACE('',(#511),#502,.F.);
#513=FILL_AREA_STYLE_COLOUR('',#5);
#514=FILL_AREA_STYLE('',(#513));
#515=SURFACE_STYLE_FILL_AREA(#514);
#516=SURFACE_SIDE_STYLE('',(#515));
#517=SURFACE_STYLE_USAGE(.BOTH.,#516);
#518=PRESENTATION_STYLE_ASSIGNMENT((#517));
#519=STYLED_ITEM('',(#518),#512);
#520=CARTESIAN_POINT('',(1.1E1,-6.1E0,8.E0));
#521=DIRECTION('',(0.E0,0.E0,1.E0));
#522=DIRECTION('',(-1.E0,0.E0,0.E0));
#523=AXIS2_PLACEMENT_3D('',#520,#521,#522);
#524=CYLINDRICAL_SURFACE('',#523,4.25E0);
#526=ORIENTED_EDGE('',*,*,#525,.T.);
#527=ORIENTED_EDGE('',*,*,#506,.F.);
#528=ORIENTED_EDGE('',*,*,#344,.T.);
#529=ORIENTED_EDGE('',*,*,#503,.F.);
#530=EDGE_LOOP('',(#526,#527,#528,#529));
#531=FACE_OUTER_BOUND('',#530,.F.);
#532=ADVANCED_FACE('',(#531),#524,.F.);
#533=FILL_AREA_STYLE_COLOUR('',#5);
#534=FILL_AREA_STYLE('',(#533));
#535=SURFACE_STYLE_FILL_AREA(#534);
#536=SURFACE_SIDE_STYLE('',(#535));
#537=SURFACE_STYLE_USAGE(.BOTH.,#536);
#538=PRESENTATION_STYLE_ASSIGNMENT((#537));
#539=STYLED_ITEM('',(#538),#532);
#540=CARTESIAN_POINT('',(1.1E1,-6.1E0,8.E0));
#541=DIRECTION('',(0.E0,0.E0,1.E0));
#542=DIRECTION('',(0.E0,-1.E0,0.E0));
#543=AXIS2_PLACEMENT_3D('',#540,#541,#542);
#544=PLANE('',#543);
#545=ORIENTED_EDGE('',*,*,#508,.F.);
#546=ORIENTED_EDGE('',*,*,#525,.F.);
#547=EDGE_LOOP('',(#545,#546));
#548=FACE_OUTER_BOUND('',#547,.F.);
#550=ORIENTED_EDGE('',*,*,#549,.F.);
#552=ORIENTED_EDGE('',*,*,#551,.F.);
#553=EDGE_LOOP('',(#550,#552));
#554=FACE_BOUND('',#553,.F.);
#555=ADVANCED_FACE('',(#548,#554),#544,.T.);
#556=FILL_AREA_STYLE_COLOUR('',#5);
#557=FILL_AREA_STYLE('',(#556));
#558=SURFACE_STYLE_FILL_AREA(#557);
#559=SURFACE_SIDE_STYLE('',(#558));
#560=SURFACE_STYLE_USAGE(.BOTH.,#559);
#561=PRESENTATION_STYLE_ASSIGNMENT((#560));
#562=STYLED_ITEM('',(#561),#555);
#563=CARTESIAN_POINT('',(1.1E1,-6.1E0,1.8E-14));
#564=DIRECTION('',(0.E0,0.E0,1.E0));
#565=DIRECTION('',(-1.E0,0.E0,0.E0));
#566=AXIS2_PLACEMENT_3D('',#563,#564,#565);
#567=CYLINDRICAL_SURFACE('',#566,2.25E0);
#568=ORIENTED_EDGE('',*,*,#286,.T.);
#570=ORIENTED_EDGE('',*,*,#569,.F.);
#571=ORIENTED_EDGE('',*,*,#549,.T.);
#573=ORIENTED_EDGE('',*,*,#572,.F.);
#574=EDGE_LOOP('',(#568,#570,#571,#573));
#575=FACE_OUTER_BOUND('',#574,.F.);
#576=ADVANCED_FACE('',(#575),#567,.F.);
#577=FILL_AREA_STYLE_COLOUR('',#5);
#578=FILL_AREA_STYLE('',(#577));
#579=SURFACE_STYLE_FILL_AREA(#578);
#580=SURFACE_SIDE_STYLE('',(#579));
#581=SURFACE_STYLE_USAGE(.BOTH.,#580);
#582=PRESENTATION_STYLE_ASSIGNMENT((#581));
#583=STYLED_ITEM('',(#582),#576);
#584=CARTESIAN_POINT('',(1.1E1,-6.1E0,1.8E-14));
#585=DIRECTION('',(0.E0,0.E0,1.E0));
#586=DIRECTION('',(-1.E0,0.E0,0.E0));
#587=AXIS2_PLACEMENT_3D('',#584,#585,#586);
#588=CYLINDRICAL_SURFACE('',#587,2.25E0);
#589=ORIENTED_EDGE('',*,*,#572,.T.);
#590=ORIENTED_EDGE('',*,*,#551,.T.);
#591=ORIENTED_EDGE('',*,*,#569,.T.);
#592=ORIENTED_EDGE('',*,*,#288,.T.);
#593=EDGE_LOOP('',(#589,#590,#591,#592));
#594=FACE_OUTER_BOUND('',#593,.F.);
#595=ADVANCED_FACE('',(#594),#588,.F.);
#596=FILL_AREA_STYLE_COLOUR('',#5);
#597=FILL_AREA_STYLE('',(#596));
#598=SURFACE_STYLE_FILL_AREA(#597);
#599=SURFACE_SIDE_STYLE('',(#598));
#600=SURFACE_STYLE_USAGE(.BOTH.,#599);
#601=PRESENTATION_STYLE_ASSIGNMENT((#600));
#602=STYLED_ITEM('',(#601),#595);
#603=CLOSED_SHELL('',(#258,#292,#314,#348,#369,#388,#407,#429,#449,#471,#490,
#512,#532,#555,#576,#595));
#604=MANIFOLD_SOLID_BREP('',#603);
#606=DIMENSIONAL_EXPONENTS(0.E0,0.E0,0.E0,0.E0,0.E0,0.E0,0.E0);
#608=PLANE_ANGLE_MEASURE_WITH_UNIT(PLANE_ANGLE_MEASURE(1.745329251994E-2),#607);
#609=(CONVERSION_BASED_UNIT('DEGREE',#608)NAMED_UNIT(*)PLANE_ANGLE_UNIT());
#611=UNCERTAINTY_MEASURE_WITH_UNIT(LENGTH_MEASURE(4.638176245295E-3),#605,
'closure',
'Maximum model space distance between geometric entities at asserted connectivities');
#612=(GEOMETRIC_REPRESENTATION_CONTEXT(3)GLOBAL_UNCERTAINTY_ASSIGNED_CONTEXT((
#611))GLOBAL_UNIT_ASSIGNED_CONTEXT((#605,#609,#610))REPRESENTATION_CONTEXT
('ID1','3'));
#614=MECHANICAL_DESIGN_GEOMETRIC_PRESENTATION_REPRESENTATION('',(#265,#299,#321,
#355,#376,#395,#414,#436,#456,#478,#497,#519,#539,#562,#583,#602),#612);
#615=APPLICATION_CONTEXT(
'CONFIGURATION CONTROLLED 3D DESIGNS OF MECHANICAL PARTS AND ASSEMBLIES');
#616=APPLICATION_PROTOCOL_DEFINITION('international standard',
'config_control_design',1994,#615);
#617=DESIGN_CONTEXT('',#615,'design');
#618=MECHANICAL_CONTEXT('',#615,'mechanical');
#619=PRODUCT('DM_CAD-2093','DM_CAD-2093','NOT SPECIFIED',(#618));
#620=PRODUCT_DEFINITION_FORMATION_WITH_SPECIFIED_SOURCE('1','LAST_VERSION',#619,
.MADE.);
#624=PRODUCT_CATEGORY('part','');
#625=PRODUCT_RELATED_PRODUCT_CATEGORY('detail','',(#619));
#626=PRODUCT_CATEGORY_RELATIONSHIP('','',#624,#625);
#627=SECURITY_CLASSIFICATION_LEVEL('unclassified');
#628=SECURITY_CLASSIFICATION('','',#627);
#629=CC_DESIGN_SECURITY_CLASSIFICATION(#628,(#620));
#630=APPROVAL_STATUS('approved');
#631=APPROVAL(#630,'');
#632=CC_DESIGN_APPROVAL(#631,(#628,#620,#621));
#633=CALENDAR_DATE(115,20,3);
#634=COORDINATED_UNIVERSAL_TIME_OFFSET(1,0,.AHEAD.);
#635=LOCAL_TIME(11,32,2.4E1,#634);
#636=DATE_AND_TIME(#633,#635);
#637=APPROVAL_DATE_TIME(#636,#631);
#638=DATE_TIME_ROLE('creation_date');
#639=CC_DESIGN_DATE_AND_TIME_ASSIGNMENT(#636,#638,(#621));
#640=DATE_TIME_ROLE('classification_date');
#641=CC_DESIGN_DATE_AND_TIME_ASSIGNMENT(#636,#640,(#628));
#642=PERSON('UNSPECIFIED','UNSPECIFIED',$,$,$,$);
#643=ORGANIZATION('UNSPECIFIED','UNSPECIFIED','UNSPECIFIED');
#644=PERSON_AND_ORGANIZATION(#642,#643);
#645=APPROVAL_ROLE('approver');
#646=APPROVAL_PERSON_ORGANIZATION(#644,#631,#645);
#647=PERSON_AND_ORGANIZATION_ROLE('creator');
#648=CC_DESIGN_PERSON_AND_ORGANIZATION_ASSIGNMENT(#644,#647,(#620,#621));
#649=PERSON_AND_ORGANIZATION_ROLE('design_supplier');
#650=CC_DESIGN_PERSON_AND_ORGANIZATION_ASSIGNMENT(#644,#649,(#620));
#651=PERSON_AND_ORGANIZATION_ROLE('classification_officer');
#652=CC_DESIGN_PERSON_AND_ORGANIZATION_ASSIGNMENT(#644,#651,(#628));
#653=PERSON_AND_ORGANIZATION_ROLE('design_owner');
#654=CC_DESIGN_PERSON_AND_ORGANIZATION_ASSIGNMENT(#644,#653,(#619));
#1=COLOUR_RGB('',0.E0,0.E0,1.96E-1);
#2=COLOUR_RGB('',0.E0,0.E0,3.14E-1);
#3=COLOUR_RGB('',0.E0,1.96E-1,0.E0);
#4=COLOUR_RGB('',0.E0,3.14E-1,0.E0);
#5=COLOUR_RGB('',0.E0,6.470588235294E-1,5.294117647059E-1);
#6=COLOUR_RGB('',7.8E-2,7.8E-2,7.8E-2);
#7=COLOUR_RGB('',1.18E-1,1.18E-1,4.71E-1);
#8=COLOUR_RGB('',1.57E-1,1.57E-1,1.57E-1);
#9=COLOUR_RGB('',1.96E-1,0.E0,0.E0);
#10=COLOUR_RGB('',1.96E-1,0.E0,1.96E-1);
#11=COLOUR_RGB('',1.96E-1,5.88E-1,1.96E-1);
#12=COLOUR_RGB('',2.35E-1,2.35E-1,2.35E-1);
#13=COLOUR_RGB('',2.35E-1,2.35E-1,5.88E-1);
#14=COLOUR_RGB('',3.14E-1,3.14E-1,3.14E-1);
#15=COLOUR_RGB('',3.27543E-1,1.E0,6.33116E-1);
#16=COLOUR_RGB('',3.92E-1,0.E0,0.E0);
#17=COLOUR_RGB('',3.92E-1,0.E0,3.92E-1);
#18=COLOUR_RGB('',3.92E-1,3.92E-1,3.92E-1);
#19=COLOUR_RGB('',3.92E-1,3.92E-1,8.63E-1);
#20=COLOUR_RGB('',3.92E-1,5.88E-1,3.92E-1);
#21=COLOUR_RGB('',3.92E-1,5.88E-1,8.63E-1);
#22=COLOUR_RGB('',5.01961E-1,1.E0,5.01961E-1);
#23=COLOUR_RGB('',5.5E-1,5.6E-1,7.E-1);
#24=COLOUR_RGB('',5.88E-1,5.88E-1,5.88E-1);
#25=COLOUR_RGB('',5.88E-1,7.84E-1,5.88E-1);
#26=COLOUR_RGB('',6.2E-1,3.1E-1,6.5E-1);
#27=COLOUR_RGB('',6.8E-1,8.5E-1,1.E0);
#28=COLOUR_RGB('',6.952E-1,7.426E-1,7.9E-1);
#29=COLOUR_RGB('',7.607843137255E-1,7.607843137255E-1,2.313725490196E-1);
#30=COLOUR_RGB('',9.8E-1,3.92E-1,0.E0);
#31=COLOUR_RGB('',9.8E-1,5.88E-1,0.E0);
#32=COLOUR_RGB('',9.8E-1,7.84E-1,0.E0);
#33=COLOUR_RGB('',1.E0,3.7E-1,3.8E-1);
#34=DRAUGHTING_PRE_DEFINED_COLOUR('white');
#39=CIRCLE('',#38,2.25E0);
#48=CIRCLE('',#47,2.25E0);
#73=CIRCLE('',#72,2.25E0);
#78=CIRCLE('',#77,2.25E0);
#115=CIRCLE('',#114,4.25E0);
#120=CIRCLE('',#119,4.25E0);
#129=CIRCLE('',#128,4.25E0);
#138=CIRCLE('',#137,2.25E0);
#143=CIRCLE('',#142,4.25E0);
#148=CIRCLE('',#147,4.25E0);
#153=CIRCLE('',#152,4.25E0);
#162=CIRCLE('',#161,4.25E0);
#171=CIRCLE('',#170,2.25E0);
#176=CIRCLE('',#175,4.25E0);
#181=CIRCLE('',#180,2.25E0);
#190=CIRCLE('',#189,2.25E0);
#248=EDGE_CURVE('',#201,#198,#39,.T.);
#250=EDGE_CURVE('',#197,#198,#43,.T.);
#252=EDGE_CURVE('',#197,#202,#48,.T.);
#254=EDGE_CURVE('',#201,#202,#52,.T.);
#271=EDGE_CURVE('',#218,#206,#56,.T.);
#273=EDGE_CURVE('',#205,#206,#60,.T.);
#275=EDGE_CURVE('',#208,#205,#64,.T.);
#277=EDGE_CURVE('',#208,#218,#68,.T.);
#282=EDGE_CURVE('',#198,#201,#73,.T.);
#286=EDGE_CURVE('',#211,#212,#181,.T.);
#288=EDGE_CURVE('',#212,#211,#78,.T.);
#305=EDGE_CURVE('',#215,#216,#82,.T.);
#307=EDGE_CURVE('',#206,#215,#110,.T.);
#310=EDGE_CURVE('',#216,#218,#86,.T.);
#327=EDGE_CURVE('',#221,#222,#94,.T.);
#329=EDGE_CURVE('',#215,#221,#102,.T.);
#332=EDGE_CURVE('',#222,#216,#90,.T.);
#336=EDGE_CURVE('',#225,#226,#115,.T.);
#338=EDGE_CURVE('',#226,#225,#129,.T.);
#342=EDGE_CURVE('',#229,#230,#148,.T.);
#344=EDGE_CURVE('',#230,#229,#162,.T.);
#362=EDGE_CURVE('',#205,#221,#106,.T.);
#365=EDGE_CURVE('',#222,#208,#98,.T.);
#420=EDGE_CURVE('',#234,#225,#133,.T.);
#423=EDGE_CURVE('',#226,#232,#124,.T.);
#425=EDGE_CURVE('',#232,#234,#143,.T.);
#442=EDGE_CURVE('',#234,#232,#120,.T.);
#467=EDGE_CURVE('',#202,#197,#138,.T.);
#503=EDGE_CURVE('',#238,#229,#166,.T.);
#506=EDGE_CURVE('',#230,#236,#157,.T.);
#508=EDGE_CURVE('',#236,#238,#176,.T.);
#525=EDGE_CURVE('',#238,#236,#153,.T.);
#549=EDGE_CURVE('',#241,#242,#190,.T.);
#551=EDGE_CURVE('',#242,#241,#171,.T.);
#569=EDGE_CURVE('',#241,#212,#185,.T.);
#572=EDGE_CURVE('',#211,#242,#194,.T.);
#605=(LENGTH_UNIT()NAMED_UNIT(*)SI_UNIT(.MILLI.,.METRE.));
#607=(NAMED_UNIT(*)PLANE_ANGLE_UNIT()SI_UNIT($,.RADIAN.));
#610=(NAMED_UNIT(*)SI_UNIT($,.STERADIAN.)SOLID_ANGLE_UNIT());
#613=ADVANCED_BREP_SHAPE_REPRESENTATION('',(#604),#612);
#621=PRODUCT_DEFINITION('design','',#620,#617);
#622=PRODUCT_DEFINITION_SHAPE('','SHAPE FOR DM_CAD-2093.',#621);
#623=SHAPE_DEFINITION_REPRESENTATION(#622,#613);
ENDSEC;
END-ISO-10303-21;
