ISO-10303-21;
HEADER;
FILE_DESCRIPTION((''),'2;1');
FILE_NAME('CAD2371_SW0001','2016-09-08T',('cmozuch'),(''),
'PRO/ENGINEER BY PARAMETRIC TECHNOLOGY CORPORATION, 2015440',
'PRO/ENGINEER BY PARAMETRIC TECHNOLOGY CORPORATION, 2015440','');
FILE_SCHEMA(('CONFIG_CONTROL_DESIGN'));
ENDSEC;
DATA;
#34=DIRECTION('',(0.E0,0.E0,-1.E0));
#35=VECTOR('',#34,1.E-1);
#36=CARTESIAN_POINT('',(7.028448136144E0,-1.392108036526E0,-2.212015118448E0));
#37=LINE('',#36,#35);
#38=CARTESIAN_POINT('',(5.978448136144E0,-1.392108036526E0,-2.312015118448E0));
#39=DIRECTION('',(0.E0,0.E0,-1.E0));
#40=DIRECTION('',(1.E0,0.E0,0.E0));
#41=AXIS2_PLACEMENT_3D('',#38,#39,#40);
#43=CARTESIAN_POINT('',(5.978448136144E0,-1.392108036526E0,-2.312015118448E0));
#44=DIRECTION('',(0.E0,0.E0,-1.E0));
#45=DIRECTION('',(-1.E0,0.E0,0.E0));
#46=AXIS2_PLACEMENT_3D('',#43,#44,#45);
#48=CARTESIAN_POINT('',(6.528448136144E0,-1.392108036526E0,-2.312015118448E0));
#49=DIRECTION('',(0.E0,0.E0,1.E0));
#50=DIRECTION('',(-1.E0,0.E0,0.E0));
#51=AXIS2_PLACEMENT_3D('',#48,#49,#50);
#53=CARTESIAN_POINT('',(6.528448136144E0,-1.392108036526E0,-2.312015118448E0));
#54=DIRECTION('',(0.E0,0.E0,1.E0));
#55=DIRECTION('',(1.E0,0.E0,0.E0));
#56=AXIS2_PLACEMENT_3D('',#53,#54,#55);
#58=CARTESIAN_POINT('',(5.428448136144E0,-1.392108036526E0,-2.312015118448E0));
#59=DIRECTION('',(0.E0,0.E0,1.E0));
#60=DIRECTION('',(1.E0,0.E0,0.E0));
#61=AXIS2_PLACEMENT_3D('',#58,#59,#60);
#63=CARTESIAN_POINT('',(5.428448136144E0,-1.392108036526E0,-2.312015118448E0));
#64=DIRECTION('',(0.E0,0.E0,1.E0));
#65=DIRECTION('',(-1.E0,0.E0,0.E0));
#66=AXIS2_PLACEMENT_3D('',#63,#64,#65);
#68=DIRECTION('',(0.E0,0.E0,-1.E0));
#69=VECTOR('',#68,1.7E1);
#70=CARTESIAN_POINT('',(3.478448136144E0,-1.392108036526E0,1.468798488155E1));
#71=LINE('',#70,#69);
#72=DIRECTION('',(0.E0,0.E0,-1.E0));
#73=VECTOR('',#72,1.7E1);
#74=CARTESIAN_POINT('',(8.478448136144E0,-1.392108036526E0,1.468798488155E1));
#75=LINE('',#74,#73);
#76=CARTESIAN_POINT('',(5.978448136144E0,-1.392108036526E0,1.468798488155E1));
#77=DIRECTION('',(0.E0,0.E0,1.E0));
#78=DIRECTION('',(1.E0,0.E0,0.E0));
#79=AXIS2_PLACEMENT_3D('',#76,#77,#78);
#81=CARTESIAN_POINT('',(5.978448136144E0,-1.392108036526E0,1.468798488155E1));
#82=DIRECTION('',(0.E0,0.E0,1.E0));
#83=DIRECTION('',(-1.E0,0.E0,0.E0));
#84=AXIS2_PLACEMENT_3D('',#81,#82,#83);
#86=CARTESIAN_POINT('',(4.873448136144E0,-1.392108036526E0,1.468798488155E1));
#87=DIRECTION('',(0.E0,0.E0,-1.E0));
#88=DIRECTION('',(1.E0,0.E0,0.E0));
#89=AXIS2_PLACEMENT_3D('',#86,#87,#88);
#91=CARTESIAN_POINT('',(4.873448136144E0,-1.392108036526E0,1.468798488155E1));
#92=DIRECTION('',(0.E0,0.E0,-1.E0));
#93=DIRECTION('',(-1.E0,0.E0,0.E0));
#94=AXIS2_PLACEMENT_3D('',#91,#92,#93);
#96=CARTESIAN_POINT('',(7.083448136144E0,-1.392108036526E0,1.468798488155E1));
#97=DIRECTION('',(0.E0,0.E0,-1.E0));
#98=DIRECTION('',(1.E0,0.E0,0.E0));
#99=AXIS2_PLACEMENT_3D('',#96,#97,#98);
#101=CARTESIAN_POINT('',(7.083448136144E0,-1.392108036526E0,1.468798488155E1));
#102=DIRECTION('',(0.E0,0.E0,-1.E0));
#103=DIRECTION('',(-1.E0,0.E0,0.E0));
#104=AXIS2_PLACEMENT_3D('',#101,#102,#103);
#106=DIRECTION('',(0.E0,0.E0,-1.E0));
#107=VECTOR('',#106,6.E1);
#108=CARTESIAN_POINT('',(3.773448136144E0,-1.392108036526E0,7.468798488155E1));
#109=LINE('',#108,#107);
#110=DIRECTION('',(0.E0,0.E0,-1.E0));
#111=VECTOR('',#110,6.E1);
#112=CARTESIAN_POINT('',(5.973448136144E0,-1.392108036526E0,7.468798488155E1));
#113=LINE('',#112,#111);
#114=CARTESIAN_POINT('',(4.873448136144E0,-1.392108036526E0,7.468798488155E1));
#115=DIRECTION('',(0.E0,0.E0,1.E0));
#116=DIRECTION('',(1.E0,0.E0,0.E0));
#117=AXIS2_PLACEMENT_3D('',#114,#115,#116);
#119=CARTESIAN_POINT('',(4.873448136144E0,-1.392108036526E0,7.468798488155E1));
#120=DIRECTION('',(0.E0,0.E0,1.E0));
#121=DIRECTION('',(-1.E0,0.E0,0.E0));
#122=AXIS2_PLACEMENT_3D('',#119,#120,#121);
#124=DIRECTION('',(0.E0,0.E0,-1.E0));
#125=VECTOR('',#124,6.E1);
#126=CARTESIAN_POINT('',(5.983448136144E0,-1.392108036526E0,7.468798488155E1));
#127=LINE('',#126,#125);
#128=DIRECTION('',(0.E0,0.E0,-1.E0));
#129=VECTOR('',#128,6.E1);
#130=CARTESIAN_POINT('',(8.183448136144E0,-1.392108036526E0,7.468798488155E1));
#131=LINE('',#130,#129);
#132=CARTESIAN_POINT('',(7.083448136144E0,-1.392108036526E0,7.468798488155E1));
#133=DIRECTION('',(0.E0,0.E0,1.E0));
#134=DIRECTION('',(1.E0,0.E0,0.E0));
#135=AXIS2_PLACEMENT_3D('',#132,#133,#134);
#137=CARTESIAN_POINT('',(7.083448136144E0,-1.392108036526E0,7.468798488155E1));
#138=DIRECTION('',(0.E0,0.E0,1.E0));
#139=DIRECTION('',(-1.E0,0.E0,0.E0));
#140=AXIS2_PLACEMENT_3D('',#137,#138,#139);
#142=DIRECTION('',(0.E0,0.E0,-1.E0));
#143=VECTOR('',#142,1.E-1);
#144=CARTESIAN_POINT('',(6.028448136144E0,-1.392108036526E0,-2.212015118448E0));
#145=LINE('',#144,#143);
#146=CARTESIAN_POINT('',(6.528448136144E0,-1.392108036526E0,-2.212015118448E0));
#147=DIRECTION('',(0.E0,0.E0,-1.E0));
#148=DIRECTION('',(-1.E0,0.E0,0.E0));
#149=AXIS2_PLACEMENT_3D('',#146,#147,#148);
#151=CARTESIAN_POINT('',(6.528448136144E0,-1.392108036526E0,-2.212015118448E0));
#152=DIRECTION('',(0.E0,0.E0,-1.E0));
#153=DIRECTION('',(1.E0,0.E0,0.E0));
#154=AXIS2_PLACEMENT_3D('',#151,#152,#153);
#156=DIRECTION('',(0.E0,0.E0,1.E0));
#157=VECTOR('',#156,1.E-1);
#158=CARTESIAN_POINT('',(5.928448136144E0,-1.392108036526E0,-2.312015118448E0));
#159=LINE('',#158,#157);
#160=DIRECTION('',(0.E0,0.E0,1.E0));
#161=VECTOR('',#160,1.E-1);
#162=CARTESIAN_POINT('',(4.928448136144E0,-1.392108036526E0,-2.312015118448E0));
#163=LINE('',#162,#161);
#164=CARTESIAN_POINT('',(5.428448136144E0,-1.392108036526E0,-2.212015118448E0));
#165=DIRECTION('',(0.E0,0.E0,-1.E0));
#166=DIRECTION('',(1.E0,0.E0,0.E0));
#167=AXIS2_PLACEMENT_3D('',#164,#165,#166);
#169=CARTESIAN_POINT('',(5.428448136144E0,-1.392108036526E0,-2.212015118448E0));
#170=DIRECTION('',(0.E0,0.E0,-1.E0));
#171=DIRECTION('',(-1.E0,0.E0,0.E0));
#172=AXIS2_PLACEMENT_3D('',#169,#170,#171);
#174=CARTESIAN_POINT('',(8.478448136144E0,-1.392108036526E0,1.468798488155E1));
#175=CARTESIAN_POINT('',(8.478448136144E0,-1.392108036526E0,-2.312015118448E0));
#176=VERTEX_POINT('',#174);
#177=VERTEX_POINT('',#175);
#178=CARTESIAN_POINT('',(6.028448136144E0,-1.392108036526E0,-2.312015118448E0));
#179=CARTESIAN_POINT('',(7.028448136144E0,-1.392108036526E0,-2.312015118448E0));
#180=VERTEX_POINT('',#178);
#181=VERTEX_POINT('',#179);
#182=CARTESIAN_POINT('',(5.983448136144E0,-1.392108036526E0,7.468798488155E1));
#183=CARTESIAN_POINT('',(5.983448136144E0,-1.392108036526E0,1.468798488155E1));
#184=VERTEX_POINT('',#182);
#185=VERTEX_POINT('',#183);
#186=CARTESIAN_POINT('',(3.773448136144E0,-1.392108036526E0,7.468798488155E1));
#187=CARTESIAN_POINT('',(3.773448136144E0,-1.392108036526E0,1.468798488155E1));
#188=VERTEX_POINT('',#186);
#189=VERTEX_POINT('',#187);
#190=CARTESIAN_POINT('',(5.973448136144E0,-1.392108036526E0,7.468798488155E1));
#191=VERTEX_POINT('',#190);
#192=CARTESIAN_POINT('',(5.973448136144E0,-1.392108036526E0,1.468798488155E1));
#193=VERTEX_POINT('',#192);
#194=CARTESIAN_POINT('',(8.183448136144E0,-1.392108036526E0,1.468798488155E1));
#195=VERTEX_POINT('',#194);
#196=CARTESIAN_POINT('',(8.183448136144E0,-1.392108036526E0,7.468798488155E1));
#197=VERTEX_POINT('',#196);
#198=CARTESIAN_POINT('',(3.478448136144E0,-1.392108036526E0,-2.312015118448E0));
#199=VERTEX_POINT('',#198);
#200=CARTESIAN_POINT('',(3.478448136144E0,-1.392108036526E0,1.468798488155E1));
#201=VERTEX_POINT('',#200);
#202=CARTESIAN_POINT('',(6.028448136144E0,-1.392108036526E0,-2.212015118448E0));
#203=CARTESIAN_POINT('',(7.028448136144E0,-1.392108036526E0,-2.212015118448E0));
#204=VERTEX_POINT('',#202);
#205=VERTEX_POINT('',#203);
#206=CARTESIAN_POINT('',(5.928448136144E0,-1.392108036526E0,-2.312015118448E0));
#207=CARTESIAN_POINT('',(4.928448136144E0,-1.392108036526E0,-2.312015118448E0));
#208=VERTEX_POINT('',#206);
#209=VERTEX_POINT('',#207);
#210=CARTESIAN_POINT('',(4.928448136144E0,-1.392108036526E0,-2.212015118448E0));
#211=VERTEX_POINT('',#210);
#212=CARTESIAN_POINT('',(5.928448136144E0,-1.392108036526E0,-2.212015118448E0));
#213=VERTEX_POINT('',#212);
#214=CARTESIAN_POINT('',(6.528448136144E0,-1.392108036526E0,-2.312015118448E0));
#215=DIRECTION('',(0.E0,0.E0,1.E0));
#216=DIRECTION('',(1.E0,0.E0,0.E0));
#217=AXIS2_PLACEMENT_3D('',#214,#215,#216);
#218=CYLINDRICAL_SURFACE('',#217,5.E-1);
#220=ORIENTED_EDGE('',*,*,#219,.T.);
#222=ORIENTED_EDGE('',*,*,#221,.F.);
#224=ORIENTED_EDGE('',*,*,#223,.T.);
#226=ORIENTED_EDGE('',*,*,#225,.T.);
#227=EDGE_LOOP('',(#220,#222,#224,#226));
#228=FACE_OUTER_BOUND('',#227,.F.);
#229=ADVANCED_FACE('',(#228),#218,.F.);
#230=FILL_AREA_STYLE_COLOUR('',#14);
#231=FILL_AREA_STYLE('',(#230));
#232=SURFACE_STYLE_FILL_AREA(#231);
#233=SURFACE_SIDE_STYLE('',(#232));
#234=SURFACE_STYLE_USAGE(.POSITIVE.,#233);
#235=PRESENTATION_STYLE_ASSIGNMENT((#234));
#236=STYLED_ITEM('',(#235),#229);
#237=CARTESIAN_POINT('',(8.581683349755E0,-3.992108036526E0,-2.312015118448E0));
#238=DIRECTION('',(0.E0,0.E0,1.E0));
#239=DIRECTION('',(0.E0,1.E0,0.E0));
#240=AXIS2_PLACEMENT_3D('',#237,#238,#239);
#241=PLANE('',#240);
#243=ORIENTED_EDGE('',*,*,#242,.F.);
#245=ORIENTED_EDGE('',*,*,#244,.F.);
#246=EDGE_LOOP('',(#243,#245));
#247=FACE_OUTER_BOUND('',#246,.F.);
#248=ORIENTED_EDGE('',*,*,#219,.F.);
#250=ORIENTED_EDGE('',*,*,#249,.F.);
#251=EDGE_LOOP('',(#248,#250));
#252=FACE_BOUND('',#251,.F.);
#254=ORIENTED_EDGE('',*,*,#253,.F.);
#256=ORIENTED_EDGE('',*,*,#255,.F.);
#257=EDGE_LOOP('',(#254,#256));
#258=FACE_BOUND('',#257,.F.);
#259=ADVANCED_FACE('',(#247,#252,#258),#241,.F.);
#260=FILL_AREA_STYLE_COLOUR('',#14);
#261=FILL_AREA_STYLE('',(#260));
#262=SURFACE_STYLE_FILL_AREA(#261);
#263=SURFACE_SIDE_STYLE('',(#262));
#264=SURFACE_STYLE_USAGE(.POSITIVE.,#263);
#265=PRESENTATION_STYLE_ASSIGNMENT((#264));
#266=STYLED_ITEM('',(#265),#259);
#267=CARTESIAN_POINT('',(5.978448136144E0,-1.392108036526E0,-2.312015118448E0));
#268=DIRECTION('',(0.E0,0.E0,1.E0));
#269=DIRECTION('',(1.E0,0.E0,0.E0));
#270=AXIS2_PLACEMENT_3D('',#267,#268,#269);
#271=CYLINDRICAL_SURFACE('',#270,2.5E0);
#273=ORIENTED_EDGE('',*,*,#272,.F.);
#275=ORIENTED_EDGE('',*,*,#274,.T.);
#277=ORIENTED_EDGE('',*,*,#276,.T.);
#278=ORIENTED_EDGE('',*,*,#242,.T.);
#279=EDGE_LOOP('',(#273,#275,#277,#278));
#280=FACE_OUTER_BOUND('',#279,.F.);
#281=ADVANCED_FACE('',(#280),#271,.T.);
#282=FILL_AREA_STYLE_COLOUR('',#14);
#283=FILL_AREA_STYLE('',(#282));
#284=SURFACE_STYLE_FILL_AREA(#283);
#285=SURFACE_SIDE_STYLE('',(#284));
#286=SURFACE_STYLE_USAGE(.POSITIVE.,#285);
#287=PRESENTATION_STYLE_ASSIGNMENT((#286));
#288=STYLED_ITEM('',(#287),#281);
#289=CARTESIAN_POINT('',(5.978448136144E0,-1.392108036526E0,-2.312015118448E0));
#290=DIRECTION('',(0.E0,0.E0,1.E0));
#291=DIRECTION('',(1.E0,0.E0,0.E0));
#292=AXIS2_PLACEMENT_3D('',#289,#290,#291);
#293=CYLINDRICAL_SURFACE('',#292,2.5E0);
#294=ORIENTED_EDGE('',*,*,#244,.T.);
#295=ORIENTED_EDGE('',*,*,#276,.F.);
#297=ORIENTED_EDGE('',*,*,#296,.T.);
#298=ORIENTED_EDGE('',*,*,#272,.T.);
#299=EDGE_LOOP('',(#294,#295,#297,#298));
#300=FACE_OUTER_BOUND('',#299,.F.);
#301=ADVANCED_FACE('',(#300),#293,.T.);
#302=FILL_AREA_STYLE_COLOUR('',#14);
#303=FILL_AREA_STYLE('',(#302));
#304=SURFACE_STYLE_FILL_AREA(#303);
#305=SURFACE_SIDE_STYLE('',(#304));
#306=SURFACE_STYLE_USAGE(.POSITIVE.,#305);
#307=PRESENTATION_STYLE_ASSIGNMENT((#306));
#308=STYLED_ITEM('',(#307),#301);
#309=CARTESIAN_POINT('',(8.581683349755E0,-3.992108036526E0,1.468798488155E1));
#310=DIRECTION('',(0.E0,0.E0,1.E0));
#311=DIRECTION('',(0.E0,1.E0,0.E0));
#312=AXIS2_PLACEMENT_3D('',#309,#310,#311);
#313=PLANE('',#312);
#314=ORIENTED_EDGE('',*,*,#296,.F.);
#315=ORIENTED_EDGE('',*,*,#274,.F.);
#316=EDGE_LOOP('',(#314,#315));
#317=FACE_OUTER_BOUND('',#316,.F.);
#319=ORIENTED_EDGE('',*,*,#318,.F.);
#321=ORIENTED_EDGE('',*,*,#320,.F.);
#322=EDGE_LOOP('',(#319,#321));
#323=FACE_BOUND('',#322,.F.);
#325=ORIENTED_EDGE('',*,*,#324,.F.);
#327=ORIENTED_EDGE('',*,*,#326,.F.);
#328=EDGE_LOOP('',(#325,#327));
#329=FACE_BOUND('',#328,.F.);
#330=ADVANCED_FACE('',(#317,#323,#329),#313,.T.);
#331=FILL_AREA_STYLE_COLOUR('',#14);
#332=FILL_AREA_STYLE('',(#331));
#333=SURFACE_STYLE_FILL_AREA(#332);
#334=SURFACE_SIDE_STYLE('',(#333));
#335=SURFACE_STYLE_USAGE(.POSITIVE.,#334);
#336=PRESENTATION_STYLE_ASSIGNMENT((#335));
#337=STYLED_ITEM('',(#336),#330);
#338=CARTESIAN_POINT('',(4.873448136144E0,-1.392108036526E0,1.468798488155E1));
#339=DIRECTION('',(0.E0,0.E0,1.E0));
#340=DIRECTION('',(1.E0,0.E0,0.E0));
#341=AXIS2_PLACEMENT_3D('',#338,#339,#340);
#342=CYLINDRICAL_SURFACE('',#341,1.1E0);
#344=ORIENTED_EDGE('',*,*,#343,.F.);
#346=ORIENTED_EDGE('',*,*,#345,.T.);
#348=ORIENTED_EDGE('',*,*,#347,.T.);
#349=ORIENTED_EDGE('',*,*,#318,.T.);
#350=EDGE_LOOP('',(#344,#346,#348,#349));
#351=FACE_OUTER_BOUND('',#350,.F.);
#352=ADVANCED_FACE('',(#351),#342,.T.);
#353=FILL_AREA_STYLE_COLOUR('',#14);
#354=FILL_AREA_STYLE('',(#353));
#355=SURFACE_STYLE_FILL_AREA(#354);
#356=SURFACE_SIDE_STYLE('',(#355));
#357=SURFACE_STYLE_USAGE(.POSITIVE.,#356);
#358=PRESENTATION_STYLE_ASSIGNMENT((#357));
#359=STYLED_ITEM('',(#358),#352);
#360=CARTESIAN_POINT('',(4.873448136144E0,-1.392108036526E0,1.468798488155E1));
#361=DIRECTION('',(0.E0,0.E0,1.E0));
#362=DIRECTION('',(1.E0,0.E0,0.E0));
#363=AXIS2_PLACEMENT_3D('',#360,#361,#362);
#364=CYLINDRICAL_SURFACE('',#363,1.1E0);
#365=ORIENTED_EDGE('',*,*,#320,.T.);
#366=ORIENTED_EDGE('',*,*,#347,.F.);
#368=ORIENTED_EDGE('',*,*,#367,.T.);
#369=ORIENTED_EDGE('',*,*,#343,.T.);
#370=EDGE_LOOP('',(#365,#366,#368,#369));
#371=FACE_OUTER_BOUND('',#370,.F.);
#372=ADVANCED_FACE('',(#371),#364,.T.);
#373=FILL_AREA_STYLE_COLOUR('',#14);
#374=FILL_AREA_STYLE('',(#373));
#375=SURFACE_STYLE_FILL_AREA(#374);
#376=SURFACE_SIDE_STYLE('',(#375));
#377=SURFACE_STYLE_USAGE(.POSITIVE.,#376);
#378=PRESENTATION_STYLE_ASSIGNMENT((#377));
#379=STYLED_ITEM('',(#378),#372);
#380=CARTESIAN_POINT('',(6.066237411636E0,-1.993187610342E-1,7.468798488155E1));
#381=DIRECTION('',(0.E0,0.E0,1.E0));
#382=DIRECTION('',(-1.E0,0.E0,0.E0));
#383=AXIS2_PLACEMENT_3D('',#380,#381,#382);
#384=PLANE('',#383);
#385=ORIENTED_EDGE('',*,*,#367,.F.);
#386=ORIENTED_EDGE('',*,*,#345,.F.);
#387=EDGE_LOOP('',(#385,#386));
#388=FACE_OUTER_BOUND('',#387,.F.);
#389=ADVANCED_FACE('',(#388),#384,.T.);
#390=FILL_AREA_STYLE_COLOUR('',#14);
#391=FILL_AREA_STYLE('',(#390));
#392=SURFACE_STYLE_FILL_AREA(#391);
#393=SURFACE_SIDE_STYLE('',(#392));
#394=SURFACE_STYLE_USAGE(.POSITIVE.,#393);
#395=PRESENTATION_STYLE_ASSIGNMENT((#394));
#396=STYLED_ITEM('',(#395),#389);
#397=CARTESIAN_POINT('',(7.083448136144E0,-1.392108036526E0,1.468798488155E1));
#398=DIRECTION('',(0.E0,0.E0,1.E0));
#399=DIRECTION('',(1.E0,0.E0,0.E0));
#400=AXIS2_PLACEMENT_3D('',#397,#398,#399);
#401=CYLINDRICAL_SURFACE('',#400,1.1E0);
#403=ORIENTED_EDGE('',*,*,#402,.F.);
#405=ORIENTED_EDGE('',*,*,#404,.T.);
#407=ORIENTED_EDGE('',*,*,#406,.T.);
#408=ORIENTED_EDGE('',*,*,#324,.T.);
#409=EDGE_LOOP('',(#403,#405,#407,#408));
#410=FACE_OUTER_BOUND('',#409,.F.);
#411=ADVANCED_FACE('',(#410),#401,.T.);
#412=FILL_AREA_STYLE_COLOUR('',#14);
#413=FILL_AREA_STYLE('',(#412));
#414=SURFACE_STYLE_FILL_AREA(#413);
#415=SURFACE_SIDE_STYLE('',(#414));
#416=SURFACE_STYLE_USAGE(.POSITIVE.,#415);
#417=PRESENTATION_STYLE_ASSIGNMENT((#416));
#418=STYLED_ITEM('',(#417),#411);
#419=CARTESIAN_POINT('',(7.083448136144E0,-1.392108036526E0,1.468798488155E1));
#420=DIRECTION('',(0.E0,0.E0,1.E0));
#421=DIRECTION('',(1.E0,0.E0,0.E0));
#422=AXIS2_PLACEMENT_3D('',#419,#420,#421);
#423=CYLINDRICAL_SURFACE('',#422,1.1E0);
#424=ORIENTED_EDGE('',*,*,#326,.T.);
#425=ORIENTED_EDGE('',*,*,#406,.F.);
#427=ORIENTED_EDGE('',*,*,#426,.T.);
#428=ORIENTED_EDGE('',*,*,#402,.T.);
#429=EDGE_LOOP('',(#424,#425,#427,#428));
#430=FACE_OUTER_BOUND('',#429,.F.);
#431=ADVANCED_FACE('',(#430),#423,.T.);
#432=FILL_AREA_STYLE_COLOUR('',#14);
#433=FILL_AREA_STYLE('',(#432));
#434=SURFACE_STYLE_FILL_AREA(#433);
#435=SURFACE_SIDE_STYLE('',(#434));
#436=SURFACE_STYLE_USAGE(.POSITIVE.,#435);
#437=PRESENTATION_STYLE_ASSIGNMENT((#436));
#438=STYLED_ITEM('',(#437),#431);
#439=CARTESIAN_POINT('',(8.276237411636E0,-1.993187610342E-1,7.468798488155E1));
#440=DIRECTION('',(0.E0,0.E0,1.E0));
#441=DIRECTION('',(-1.E0,0.E0,0.E0));
#442=AXIS2_PLACEMENT_3D('',#439,#440,#441);
#443=PLANE('',#442);
#444=ORIENTED_EDGE('',*,*,#426,.F.);
#445=ORIENTED_EDGE('',*,*,#404,.F.);
#446=EDGE_LOOP('',(#444,#445));
#447=FACE_OUTER_BOUND('',#446,.F.);
#448=ADVANCED_FACE('',(#447),#443,.T.);
#449=FILL_AREA_STYLE_COLOUR('',#14);
#450=FILL_AREA_STYLE('',(#449));
#451=SURFACE_STYLE_FILL_AREA(#450);
#452=SURFACE_SIDE_STYLE('',(#451));
#453=SURFACE_STYLE_USAGE(.POSITIVE.,#452);
#454=PRESENTATION_STYLE_ASSIGNMENT((#453));
#455=STYLED_ITEM('',(#454),#448);
#456=CARTESIAN_POINT('',(6.528448136144E0,-1.392108036526E0,-2.312015118448E0));
#457=DIRECTION('',(0.E0,0.E0,1.E0));
#458=DIRECTION('',(1.E0,0.E0,0.E0));
#459=AXIS2_PLACEMENT_3D('',#456,#457,#458);
#460=CYLINDRICAL_SURFACE('',#459,5.E-1);
#461=ORIENTED_EDGE('',*,*,#225,.F.);
#463=ORIENTED_EDGE('',*,*,#462,.T.);
#464=ORIENTED_EDGE('',*,*,#221,.T.);
#465=ORIENTED_EDGE('',*,*,#249,.T.);
#466=EDGE_LOOP('',(#461,#463,#464,#465));
#467=FACE_OUTER_BOUND('',#466,.F.);
#468=ADVANCED_FACE('',(#467),#460,.F.);
#469=FILL_AREA_STYLE_COLOUR('',#14);
#470=FILL_AREA_STYLE('',(#469));
#471=SURFACE_STYLE_FILL_AREA(#470);
#472=SURFACE_SIDE_STYLE('',(#471));
#473=SURFACE_STYLE_USAGE(.POSITIVE.,#472);
#474=PRESENTATION_STYLE_ASSIGNMENT((#473));
#475=STYLED_ITEM('',(#474),#468);
#476=CARTESIAN_POINT('',(5.935658860653E0,-7.993187610345E-1,
-2.212015118448E0));
#477=DIRECTION('',(0.E0,0.E0,1.E0));
#478=DIRECTION('',(0.E0,-1.E0,0.E0));
#479=AXIS2_PLACEMENT_3D('',#476,#477,#478);
#480=PLANE('',#479);
#481=ORIENTED_EDGE('',*,*,#462,.F.);
#482=ORIENTED_EDGE('',*,*,#223,.F.);
#483=EDGE_LOOP('',(#481,#482));
#484=FACE_OUTER_BOUND('',#483,.F.);
#485=ADVANCED_FACE('',(#484),#480,.F.);
#486=FILL_AREA_STYLE_COLOUR('',#14);
#487=FILL_AREA_STYLE('',(#486));
#488=SURFACE_STYLE_FILL_AREA(#487);
#489=SURFACE_SIDE_STYLE('',(#488));
#490=SURFACE_STYLE_USAGE(.POSITIVE.,#489);
#491=PRESENTATION_STYLE_ASSIGNMENT((#490));
#492=STYLED_ITEM('',(#491),#485);
#493=CARTESIAN_POINT('',(5.428448136144E0,-1.392108036526E0,-2.212015118448E0));
#494=DIRECTION('',(0.E0,0.E0,-1.E0));
#495=DIRECTION('',(-1.E0,0.E0,0.E0));
#496=AXIS2_PLACEMENT_3D('',#493,#494,#495);
#497=CYLINDRICAL_SURFACE('',#496,5.E-1);
#499=ORIENTED_EDGE('',*,*,#498,.F.);
#500=ORIENTED_EDGE('',*,*,#253,.T.);
#502=ORIENTED_EDGE('',*,*,#501,.T.);
#504=ORIENTED_EDGE('',*,*,#503,.T.);
#505=EDGE_LOOP('',(#499,#500,#502,#504));
#506=FACE_OUTER_BOUND('',#505,.F.);
#507=ADVANCED_FACE('',(#506),#497,.F.);
#508=FILL_AREA_STYLE_COLOUR('',#14);
#509=FILL_AREA_STYLE('',(#508));
#510=SURFACE_STYLE_FILL_AREA(#509);
#511=SURFACE_SIDE_STYLE('',(#510));
#512=SURFACE_STYLE_USAGE(.POSITIVE.,#511);
#513=PRESENTATION_STYLE_ASSIGNMENT((#512));
#514=STYLED_ITEM('',(#513),#507);
#515=CARTESIAN_POINT('',(5.428448136144E0,-1.392108036526E0,-2.212015118448E0));
#516=DIRECTION('',(0.E0,0.E0,-1.E0));
#517=DIRECTION('',(-1.E0,0.E0,0.E0));
#518=AXIS2_PLACEMENT_3D('',#515,#516,#517);
#519=CYLINDRICAL_SURFACE('',#518,5.E-1);
#521=ORIENTED_EDGE('',*,*,#520,.T.);
#522=ORIENTED_EDGE('',*,*,#501,.F.);
#523=ORIENTED_EDGE('',*,*,#255,.T.);
#524=ORIENTED_EDGE('',*,*,#498,.T.);
#525=EDGE_LOOP('',(#521,#522,#523,#524));
#526=FACE_OUTER_BOUND('',#525,.F.);
#527=ADVANCED_FACE('',(#526),#519,.F.);
#528=FILL_AREA_STYLE_COLOUR('',#14);
#529=FILL_AREA_STYLE('',(#528));
#530=SURFACE_STYLE_FILL_AREA(#529);
#531=SURFACE_SIDE_STYLE('',(#530));
#532=SURFACE_STYLE_USAGE(.POSITIVE.,#531);
#533=PRESENTATION_STYLE_ASSIGNMENT((#532));
#534=STYLED_ITEM('',(#533),#527);
#535=CARTESIAN_POINT('',(6.021237411636E0,-7.993187610345E-1,
-2.212015118448E0));
#536=DIRECTION('',(0.E0,0.E0,-1.E0));
#537=DIRECTION('',(0.E0,-1.E0,0.E0));
#538=AXIS2_PLACEMENT_3D('',#535,#536,#537);
#539=PLANE('',#538);
#540=ORIENTED_EDGE('',*,*,#520,.F.);
#541=ORIENTED_EDGE('',*,*,#503,.F.);
#542=EDGE_LOOP('',(#540,#541));
#543=FACE_OUTER_BOUND('',#542,.F.);
#544=ADVANCED_FACE('',(#543),#539,.T.);
#545=FILL_AREA_STYLE_COLOUR('',#14);
#546=FILL_AREA_STYLE('',(#545));
#547=SURFACE_STYLE_FILL_AREA(#546);
#548=SURFACE_SIDE_STYLE('',(#547));
#549=SURFACE_STYLE_USAGE(.POSITIVE.,#548);
#550=PRESENTATION_STYLE_ASSIGNMENT((#549));
#551=STYLED_ITEM('',(#550),#544);
#552=CLOSED_SHELL('',(#229,#259,#281,#301,#330,#352,#372,#389,#411,#431,#448,
#468,#485,#507,#527,#544));
#553=MANIFOLD_SOLID_BREP('',#552);
#555=DIMENSIONAL_EXPONENTS(0.E0,0.E0,0.E0,0.E0,0.E0,0.E0,0.E0);
#557=PLANE_ANGLE_MEASURE_WITH_UNIT(PLANE_ANGLE_MEASURE(1.745329251994E-2),#556);
#558=(CONVERSION_BASED_UNIT('DEGREE',#557)NAMED_UNIT(*)PLANE_ANGLE_UNIT());
#560=UNCERTAINTY_MEASURE_WITH_UNIT(LENGTH_MEASURE(7.732153690249E-3),#554,
'closure',
'Maximum model space distance between geometric entities at asserted connectivities');
#561=(GEOMETRIC_REPRESENTATION_CONTEXT(3)GLOBAL_UNCERTAINTY_ASSIGNED_CONTEXT((
#560))GLOBAL_UNIT_ASSIGNED_CONTEXT((#554,#558,#559))REPRESENTATION_CONTEXT
('ID1','3'));
#563=MECHANICAL_DESIGN_GEOMETRIC_PRESENTATION_REPRESENTATION('',(#236,#266,#288,
#308,#337,#359,#379,#396,#418,#438,#455,#475,#492,#514,#534,#551),#561);
#564=APPLICATION_CONTEXT(
'CONFIGURATION CONTROLLED 3D DESIGNS OF MECHANICAL PARTS AND ASSEMBLIES');
#565=APPLICATION_PROTOCOL_DEFINITION('international standard',
'config_control_design',1994,#564);
#566=DESIGN_CONTEXT('',#564,'design');
#567=MECHANICAL_CONTEXT('',#564,'mechanical');
#568=PRODUCT('CAD2371_SW0001','CAD2371_SW0001','NOT SPECIFIED',(#567));
#569=PRODUCT_DEFINITION_FORMATION_WITH_SPECIFIED_SOURCE('1','LAST_VERSION',#568,
.MADE.);
#573=PRODUCT_CATEGORY('part','');
#574=PRODUCT_RELATED_PRODUCT_CATEGORY('detail','',(#568));
#575=PRODUCT_CATEGORY_RELATIONSHIP('','',#573,#574);
#576=SECURITY_CLASSIFICATION_LEVEL('unclassified');
#577=SECURITY_CLASSIFICATION('','',#576);
#578=CC_DESIGN_SECURITY_CLASSIFICATION(#577,(#569));
#579=APPROVAL_STATUS('approved');
#580=APPROVAL(#579,'');
#581=CC_DESIGN_APPROVAL(#580,(#577,#569,#570));
#582=CALENDAR_DATE(116,8,9);
#583=COORDINATED_UNIVERSAL_TIME_OFFSET(2,0,.AHEAD.);
#584=LOCAL_TIME(13,23,3.3E1,#583);
#585=DATE_AND_TIME(#582,#584);
#586=APPROVAL_DATE_TIME(#585,#580);
#587=DATE_TIME_ROLE('creation_date');
#588=CC_DESIGN_DATE_AND_TIME_ASSIGNMENT(#585,#587,(#570));
#589=DATE_TIME_ROLE('classification_date');
#590=CC_DESIGN_DATE_AND_TIME_ASSIGNMENT(#585,#589,(#577));
#591=PERSON('UNSPECIFIED','UNSPECIFIED',$,$,$,$);
#592=ORGANIZATION('UNSPECIFIED','UNSPECIFIED','UNSPECIFIED');
#593=PERSON_AND_ORGANIZATION(#591,#592);
#594=APPROVAL_ROLE('approver');
#595=APPROVAL_PERSON_ORGANIZATION(#593,#580,#594);
#596=PERSON_AND_ORGANIZATION_ROLE('creator');
#597=CC_DESIGN_PERSON_AND_ORGANIZATION_ASSIGNMENT(#593,#596,(#569,#570));
#598=PERSON_AND_ORGANIZATION_ROLE('design_supplier');
#599=CC_DESIGN_PERSON_AND_ORGANIZATION_ASSIGNMENT(#593,#598,(#569));
#600=PERSON_AND_ORGANIZATION_ROLE('classification_officer');
#601=CC_DESIGN_PERSON_AND_ORGANIZATION_ASSIGNMENT(#593,#600,(#577));
#602=PERSON_AND_ORGANIZATION_ROLE('design_owner');
#603=CC_DESIGN_PERSON_AND_ORGANIZATION_ASSIGNMENT(#593,#602,(#568));
#1=COLOUR_RGB('',0.E0,0.E0,1.96E-1);
#2=COLOUR_RGB('',0.E0,0.E0,3.14E-1);
#3=COLOUR_RGB('',0.E0,1.96E-1,0.E0);
#4=COLOUR_RGB('',0.E0,3.14E-1,0.E0);
#5=COLOUR_RGB('',7.8E-2,7.8E-2,7.8E-2);
#6=COLOUR_RGB('',1.18E-1,1.18E-1,4.71E-1);
#7=COLOUR_RGB('',1.57E-1,1.57E-1,1.57E-1);
#8=COLOUR_RGB('',1.96E-1,0.E0,0.E0);
#9=COLOUR_RGB('',1.96E-1,0.E0,1.96E-1);
#10=COLOUR_RGB('',1.96E-1,5.88E-1,1.96E-1);
#11=COLOUR_RGB('',2.35E-1,2.35E-1,2.35E-1);
#12=COLOUR_RGB('',2.35E-1,2.35E-1,5.88E-1);
#13=COLOUR_RGB('',3.14E-1,3.14E-1,3.14E-1);
#14=COLOUR_RGB('',3.27543E-1,1.E0,6.33116E-1);
#15=COLOUR_RGB('',3.92E-1,0.E0,0.E0);
#16=COLOUR_RGB('',3.92E-1,0.E0,3.92E-1);
#17=COLOUR_RGB('',3.92E-1,3.92E-1,3.92E-1);
#18=COLOUR_RGB('',3.92E-1,3.92E-1,8.63E-1);
#19=COLOUR_RGB('',3.92E-1,5.88E-1,3.92E-1);
#20=COLOUR_RGB('',3.92E-1,5.88E-1,8.63E-1);
#21=COLOUR_RGB('',5.01961E-1,1.E0,5.01961E-1);
#22=COLOUR_RGB('',5.5E-1,5.6E-1,7.E-1);
#23=COLOUR_RGB('',5.88E-1,5.88E-1,5.88E-1);
#24=COLOUR_RGB('',5.88E-1,7.84E-1,5.88E-1);
#25=COLOUR_RGB('',6.2E-1,3.1E-1,6.5E-1);
#26=COLOUR_RGB('',6.8E-1,8.5E-1,1.E0);
#27=COLOUR_RGB('',6.952E-1,7.426E-1,7.9E-1);
#28=COLOUR_RGB('',7.960784313725E-1,8.235294117647E-1,9.372549019608E-1);
#29=COLOUR_RGB('',9.8E-1,3.92E-1,0.E0);
#30=COLOUR_RGB('',9.8E-1,5.88E-1,0.E0);
#31=COLOUR_RGB('',9.8E-1,7.84E-1,0.E0);
#32=COLOUR_RGB('',1.E0,3.7E-1,3.8E-1);
#33=DRAUGHTING_PRE_DEFINED_COLOUR('white');
#42=CIRCLE('',#41,2.5E0);
#47=CIRCLE('',#46,2.5E0);
#52=CIRCLE('',#51,5.E-1);
#57=CIRCLE('',#56,5.E-1);
#62=CIRCLE('',#61,5.E-1);
#67=CIRCLE('',#66,5.E-1);
#80=CIRCLE('',#79,2.5E0);
#85=CIRCLE('',#84,2.5E0);
#90=CIRCLE('',#89,1.1E0);
#95=CIRCLE('',#94,1.1E0);
#100=CIRCLE('',#99,1.1E0);
#105=CIRCLE('',#104,1.1E0);
#118=CIRCLE('',#117,1.1E0);
#123=CIRCLE('',#122,1.1E0);
#136=CIRCLE('',#135,1.1E0);
#141=CIRCLE('',#140,1.1E0);
#150=CIRCLE('',#149,5.E-1);
#155=CIRCLE('',#154,5.E-1);
#168=CIRCLE('',#167,5.E-1);
#173=CIRCLE('',#172,5.E-1);
#219=EDGE_CURVE('',#180,#181,#52,.T.);
#221=EDGE_CURVE('',#205,#181,#37,.T.);
#223=EDGE_CURVE('',#205,#204,#155,.T.);
#225=EDGE_CURVE('',#204,#180,#145,.T.);
#242=EDGE_CURVE('',#177,#199,#42,.T.);
#244=EDGE_CURVE('',#199,#177,#47,.T.);
#249=EDGE_CURVE('',#181,#180,#57,.T.);
#253=EDGE_CURVE('',#208,#209,#62,.T.);
#255=EDGE_CURVE('',#209,#208,#67,.T.);
#272=EDGE_CURVE('',#201,#199,#71,.T.);
#274=EDGE_CURVE('',#201,#176,#85,.T.);
#276=EDGE_CURVE('',#176,#177,#75,.T.);
#296=EDGE_CURVE('',#176,#201,#80,.T.);
#318=EDGE_CURVE('',#193,#189,#90,.T.);
#320=EDGE_CURVE('',#189,#193,#95,.T.);
#324=EDGE_CURVE('',#195,#185,#100,.T.);
#326=EDGE_CURVE('',#185,#195,#105,.T.);
#343=EDGE_CURVE('',#188,#189,#109,.T.);
#345=EDGE_CURVE('',#188,#191,#123,.T.);
#347=EDGE_CURVE('',#191,#193,#113,.T.);
#367=EDGE_CURVE('',#191,#188,#118,.T.);
#402=EDGE_CURVE('',#184,#185,#127,.T.);
#404=EDGE_CURVE('',#184,#197,#141,.T.);
#406=EDGE_CURVE('',#197,#195,#131,.T.);
#426=EDGE_CURVE('',#197,#184,#136,.T.);
#462=EDGE_CURVE('',#204,#205,#150,.T.);
#498=EDGE_CURVE('',#208,#213,#159,.T.);
#501=EDGE_CURVE('',#209,#211,#163,.T.);
#503=EDGE_CURVE('',#211,#213,#173,.T.);
#520=EDGE_CURVE('',#213,#211,#168,.T.);
#554=(LENGTH_UNIT()NAMED_UNIT(*)SI_UNIT(.MILLI.,.METRE.));
#556=(NAMED_UNIT(*)PLANE_ANGLE_UNIT()SI_UNIT($,.RADIAN.));
#559=(NAMED_UNIT(*)SI_UNIT($,.STERADIAN.)SOLID_ANGLE_UNIT());
#562=ADVANCED_BREP_SHAPE_REPRESENTATION('',(#553),#561);
#570=PRODUCT_DEFINITION('design','',#569,#566);
#571=PRODUCT_DEFINITION_SHAPE('','SHAPE FOR CAD2371_SW0001.',#570);
#572=SHAPE_DEFINITION_REPRESENTATION(#571,#562);
ENDSEC;
END-ISO-10303-21;
