ISO-10303-21;
HEADER;
FILE_DESCRIPTION((''),'2;1');
FILE_NAME('FRH-520','2016-08-23T',('cmozuch'),(''),
'PRO/ENGINEER BY PARAMETRIC TECHNOLOGY CORPORATION, 2015440',
'PRO/ENGINEER BY PARAMETRIC TECHNOLOGY CORPORATION, 2015440','');
FILE_SCHEMA(('CONFIG_CONTROL_DESIGN'));
ENDSEC;
DATA;
#34=CARTESIAN_POINT('',(0.E0,0.E0,1.7E1));
#35=DIRECTION('',(0.E0,0.E0,-1.E0));
#36=DIRECTION('',(0.E0,-1.E0,0.E0));
#37=AXIS2_PLACEMENT_3D('',#34,#35,#36);
#39=CARTESIAN_POINT('',(0.E0,0.E0,1.7E1));
#40=DIRECTION('',(0.E0,0.E0,-1.E0));
#41=DIRECTION('',(0.E0,1.E0,0.E0));
#42=AXIS2_PLACEMENT_3D('',#39,#40,#41);
#44=CARTESIAN_POINT('',(1.105E0,0.E0,1.7E1));
#45=DIRECTION('',(0.E0,0.E0,1.E0));
#46=DIRECTION('',(-1.E0,0.E0,0.E0));
#47=AXIS2_PLACEMENT_3D('',#44,#45,#46);
#49=CARTESIAN_POINT('',(1.105E0,0.E0,1.7E1));
#50=DIRECTION('',(0.E0,0.E0,1.E0));
#51=DIRECTION('',(1.E0,0.E0,0.E0));
#52=AXIS2_PLACEMENT_3D('',#49,#50,#51);
#54=CARTESIAN_POINT('',(-1.105E0,0.E0,1.7E1));
#55=DIRECTION('',(0.E0,0.E0,1.E0));
#56=DIRECTION('',(-1.E0,0.E0,0.E0));
#57=AXIS2_PLACEMENT_3D('',#54,#55,#56);
#59=CARTESIAN_POINT('',(-1.105E0,0.E0,1.7E1));
#60=DIRECTION('',(0.E0,0.E0,1.E0));
#61=DIRECTION('',(1.E0,0.E0,0.E0));
#62=AXIS2_PLACEMENT_3D('',#59,#60,#61);
#64=DIRECTION('',(0.E0,0.E0,1.E0));
#65=VECTOR('',#64,1.7E1);
#66=CARTESIAN_POINT('',(0.E0,2.5E0,0.E0));
#67=LINE('',#66,#65);
#68=DIRECTION('',(0.E0,0.E0,1.E0));
#69=VECTOR('',#68,1.7E1);
#70=CARTESIAN_POINT('',(0.E0,-2.5E0,0.E0));
#71=LINE('',#70,#69);
#72=CARTESIAN_POINT('',(0.E0,0.E0,0.E0));
#73=DIRECTION('',(0.E0,0.E0,1.E0));
#74=DIRECTION('',(0.E0,1.E0,0.E0));
#75=AXIS2_PLACEMENT_3D('',#72,#73,#74);
#77=CARTESIAN_POINT('',(0.E0,0.E0,0.E0));
#78=DIRECTION('',(0.E0,0.E0,1.E0));
#79=DIRECTION('',(0.E0,-1.E0,0.E0));
#80=AXIS2_PLACEMENT_3D('',#77,#78,#79);
#82=CARTESIAN_POINT('',(-5.5E-1,0.E0,0.E0));
#83=DIRECTION('',(0.E0,0.E0,-1.E0));
#84=DIRECTION('',(0.E0,-1.E0,0.E0));
#85=AXIS2_PLACEMENT_3D('',#82,#83,#84);
#87=CARTESIAN_POINT('',(-5.5E-1,0.E0,0.E0));
#88=DIRECTION('',(0.E0,0.E0,-1.E0));
#89=DIRECTION('',(0.E0,1.E0,0.E0));
#90=AXIS2_PLACEMENT_3D('',#87,#88,#89);
#92=CARTESIAN_POINT('',(5.5E-1,0.E0,0.E0));
#93=DIRECTION('',(0.E0,0.E0,-1.E0));
#94=DIRECTION('',(0.E0,1.E0,0.E0));
#95=AXIS2_PLACEMENT_3D('',#92,#93,#94);
#97=CARTESIAN_POINT('',(5.5E-1,0.E0,0.E0));
#98=DIRECTION('',(0.E0,0.E0,-1.E0));
#99=DIRECTION('',(0.E0,-1.E0,0.E0));
#100=AXIS2_PLACEMENT_3D('',#97,#98,#99);
#102=DIRECTION('',(0.E0,0.E0,-1.E0));
#103=VECTOR('',#102,1.E-1);
#104=CARTESIAN_POINT('',(-5.5E-1,5.E-1,1.E-1));
#105=LINE('',#104,#103);
#106=DIRECTION('',(0.E0,0.E0,-1.E0));
#107=VECTOR('',#106,1.E-1);
#108=CARTESIAN_POINT('',(-5.5E-1,-5.E-1,1.E-1));
#109=LINE('',#108,#107);
#110=CARTESIAN_POINT('',(-5.5E-1,0.E0,1.E-1));
#111=DIRECTION('',(0.E0,0.E0,1.E0));
#112=DIRECTION('',(0.E0,1.E0,0.E0));
#113=AXIS2_PLACEMENT_3D('',#110,#111,#112);
#115=CARTESIAN_POINT('',(-5.5E-1,0.E0,1.E-1));
#116=DIRECTION('',(0.E0,0.E0,1.E0));
#117=DIRECTION('',(0.E0,-1.E0,0.E0));
#118=AXIS2_PLACEMENT_3D('',#115,#116,#117);
#120=DIRECTION('',(0.E0,0.E0,-1.E0));
#121=VECTOR('',#120,1.E-1);
#122=CARTESIAN_POINT('',(5.5E-1,-5.E-1,1.E-1));
#123=LINE('',#122,#121);
#124=DIRECTION('',(0.E0,0.E0,-1.E0));
#125=VECTOR('',#124,1.E-1);
#126=CARTESIAN_POINT('',(5.5E-1,5.E-1,1.E-1));
#127=LINE('',#126,#125);
#128=CARTESIAN_POINT('',(5.5E-1,0.E0,1.E-1));
#129=DIRECTION('',(0.E0,0.E0,1.E0));
#130=DIRECTION('',(0.E0,-1.E0,0.E0));
#131=AXIS2_PLACEMENT_3D('',#128,#129,#130);
#133=CARTESIAN_POINT('',(5.5E-1,0.E0,1.E-1));
#134=DIRECTION('',(0.E0,0.E0,1.E0));
#135=DIRECTION('',(0.E0,1.E0,0.E0));
#136=AXIS2_PLACEMENT_3D('',#133,#134,#135);
#138=DIRECTION('',(0.E0,0.E0,-1.E0));
#139=VECTOR('',#138,6.E1);
#140=CARTESIAN_POINT('',(2.205E0,0.E0,7.7E1));
#141=LINE('',#140,#139);
#142=DIRECTION('',(0.E0,0.E0,-1.E0));
#143=VECTOR('',#142,6.E1);
#144=CARTESIAN_POINT('',(5.E-3,0.E0,7.7E1));
#145=LINE('',#144,#143);
#146=CARTESIAN_POINT('',(1.105E0,0.E0,7.7E1));
#147=DIRECTION('',(0.E0,0.E0,-1.E0));
#148=DIRECTION('',(1.E0,0.E0,0.E0));
#149=AXIS2_PLACEMENT_3D('',#146,#147,#148);
#151=CARTESIAN_POINT('',(1.105E0,0.E0,7.7E1));
#152=DIRECTION('',(0.E0,0.E0,-1.E0));
#153=DIRECTION('',(-1.E0,0.E0,0.E0));
#154=AXIS2_PLACEMENT_3D('',#151,#152,#153);
#156=DIRECTION('',(0.E0,0.E0,-1.E0));
#157=VECTOR('',#156,6.E1);
#158=CARTESIAN_POINT('',(-5.E-3,0.E0,7.7E1));
#159=LINE('',#158,#157);
#160=DIRECTION('',(0.E0,0.E0,-1.E0));
#161=VECTOR('',#160,6.E1);
#162=CARTESIAN_POINT('',(-2.205E0,0.E0,7.7E1));
#163=LINE('',#162,#161);
#164=CARTESIAN_POINT('',(-1.105E0,0.E0,7.7E1));
#165=DIRECTION('',(0.E0,0.E0,-1.E0));
#166=DIRECTION('',(1.E0,0.E0,0.E0));
#167=AXIS2_PLACEMENT_3D('',#164,#165,#166);
#169=CARTESIAN_POINT('',(-1.105E0,0.E0,7.7E1));
#170=DIRECTION('',(0.E0,0.E0,-1.E0));
#171=DIRECTION('',(-1.E0,0.E0,0.E0));
#172=AXIS2_PLACEMENT_3D('',#169,#170,#171);
#174=CARTESIAN_POINT('',(0.E0,-2.5E0,1.7E1));
#175=CARTESIAN_POINT('',(0.E0,2.5E0,1.7E1));
#176=VERTEX_POINT('',#174);
#177=VERTEX_POINT('',#175);
#178=CARTESIAN_POINT('',(5.E-3,0.E0,1.7E1));
#179=CARTESIAN_POINT('',(2.205E0,0.E0,1.7E1));
#180=VERTEX_POINT('',#178);
#181=VERTEX_POINT('',#179);
#182=CARTESIAN_POINT('',(-2.205E0,0.E0,1.7E1));
#183=CARTESIAN_POINT('',(-5.E-3,0.E0,1.7E1));
#184=VERTEX_POINT('',#182);
#185=VERTEX_POINT('',#183);
#186=CARTESIAN_POINT('',(0.E0,-2.5E0,0.E0));
#187=VERTEX_POINT('',#186);
#188=CARTESIAN_POINT('',(0.E0,2.5E0,0.E0));
#189=VERTEX_POINT('',#188);
#190=CARTESIAN_POINT('',(-5.5E-1,-5.E-1,0.E0));
#191=CARTESIAN_POINT('',(-5.5E-1,5.E-1,0.E0));
#192=VERTEX_POINT('',#190);
#193=VERTEX_POINT('',#191);
#194=CARTESIAN_POINT('',(5.5E-1,5.E-1,0.E0));
#195=CARTESIAN_POINT('',(5.5E-1,-5.E-1,0.E0));
#196=VERTEX_POINT('',#194);
#197=VERTEX_POINT('',#195);
#198=CARTESIAN_POINT('',(-5.5E-1,-5.E-1,1.E-1));
#199=VERTEX_POINT('',#198);
#200=CARTESIAN_POINT('',(-5.5E-1,5.E-1,1.E-1));
#201=VERTEX_POINT('',#200);
#202=CARTESIAN_POINT('',(5.5E-1,-5.E-1,1.E-1));
#203=VERTEX_POINT('',#202);
#204=CARTESIAN_POINT('',(5.5E-1,5.E-1,1.E-1));
#205=VERTEX_POINT('',#204);
#206=CARTESIAN_POINT('',(5.E-3,0.E0,7.7E1));
#207=VERTEX_POINT('',#206);
#208=CARTESIAN_POINT('',(2.205E0,0.E0,7.7E1));
#209=VERTEX_POINT('',#208);
#210=CARTESIAN_POINT('',(-2.205E0,0.E0,7.7E1));
#211=VERTEX_POINT('',#210);
#212=CARTESIAN_POINT('',(-5.E-3,0.E0,7.7E1));
#213=VERTEX_POINT('',#212);
#214=CARTESIAN_POINT('',(0.E0,0.E0,1.7E1));
#215=DIRECTION('',(0.E0,0.E0,1.E0));
#216=DIRECTION('',(0.E0,1.E0,0.E0));
#217=AXIS2_PLACEMENT_3D('',#214,#215,#216);
#218=PLANE('',#217);
#220=ORIENTED_EDGE('',*,*,#219,.T.);
#222=ORIENTED_EDGE('',*,*,#221,.T.);
#223=EDGE_LOOP('',(#220,#222));
#224=FACE_OUTER_BOUND('',#223,.F.);
#226=ORIENTED_EDGE('',*,*,#225,.T.);
#228=ORIENTED_EDGE('',*,*,#227,.T.);
#229=EDGE_LOOP('',(#226,#228));
#230=FACE_BOUND('',#229,.F.);
#232=ORIENTED_EDGE('',*,*,#231,.T.);
#234=ORIENTED_EDGE('',*,*,#233,.T.);
#235=EDGE_LOOP('',(#232,#234));
#236=FACE_BOUND('',#235,.F.);
#237=ADVANCED_FACE('',(#224,#230,#236),#218,.T.);
#238=FILL_AREA_STYLE_COLOUR('',#14);
#239=FILL_AREA_STYLE('',(#238));
#240=SURFACE_STYLE_FILL_AREA(#239);
#241=SURFACE_SIDE_STYLE('',(#240));
#242=SURFACE_STYLE_USAGE(.POSITIVE.,#241);
#243=PRESENTATION_STYLE_ASSIGNMENT((#242));
#244=STYLED_ITEM('',(#243),#237);
#245=CARTESIAN_POINT('',(0.E0,0.E0,-8.5E-1));
#246=DIRECTION('',(0.E0,0.E0,1.E0));
#247=DIRECTION('',(0.E0,1.E0,0.E0));
#248=AXIS2_PLACEMENT_3D('',#245,#246,#247);
#249=CYLINDRICAL_SURFACE('',#248,2.5E0);
#251=ORIENTED_EDGE('',*,*,#250,.F.);
#253=ORIENTED_EDGE('',*,*,#252,.F.);
#255=ORIENTED_EDGE('',*,*,#254,.T.);
#256=ORIENTED_EDGE('',*,*,#219,.F.);
#257=EDGE_LOOP('',(#251,#253,#255,#256));
#258=FACE_OUTER_BOUND('',#257,.F.);
#259=ADVANCED_FACE('',(#258),#249,.T.);
#260=FILL_AREA_STYLE_COLOUR('',#14);
#261=FILL_AREA_STYLE('',(#260));
#262=SURFACE_STYLE_FILL_AREA(#261);
#263=SURFACE_SIDE_STYLE('',(#262));
#264=SURFACE_STYLE_USAGE(.POSITIVE.,#263);
#265=PRESENTATION_STYLE_ASSIGNMENT((#264));
#266=STYLED_ITEM('',(#265),#259);
#267=CARTESIAN_POINT('',(0.E0,0.E0,-8.5E-1));
#268=DIRECTION('',(0.E0,0.E0,1.E0));
#269=DIRECTION('',(0.E0,1.E0,0.E0));
#270=AXIS2_PLACEMENT_3D('',#267,#268,#269);
#271=CYLINDRICAL_SURFACE('',#270,2.5E0);
#272=ORIENTED_EDGE('',*,*,#250,.T.);
#273=ORIENTED_EDGE('',*,*,#221,.F.);
#274=ORIENTED_EDGE('',*,*,#254,.F.);
#276=ORIENTED_EDGE('',*,*,#275,.F.);
#277=EDGE_LOOP('',(#272,#273,#274,#276));
#278=FACE_OUTER_BOUND('',#277,.F.);
#279=ADVANCED_FACE('',(#278),#271,.T.);
#280=FILL_AREA_STYLE_COLOUR('',#14);
#281=FILL_AREA_STYLE('',(#280));
#282=SURFACE_STYLE_FILL_AREA(#281);
#283=SURFACE_SIDE_STYLE('',(#282));
#284=SURFACE_STYLE_USAGE(.POSITIVE.,#283);
#285=PRESENTATION_STYLE_ASSIGNMENT((#284));
#286=STYLED_ITEM('',(#285),#279);
#287=CARTESIAN_POINT('',(0.E0,0.E0,0.E0));
#288=DIRECTION('',(0.E0,0.E0,1.E0));
#289=DIRECTION('',(0.E0,1.E0,0.E0));
#290=AXIS2_PLACEMENT_3D('',#287,#288,#289);
#291=PLANE('',#290);
#292=ORIENTED_EDGE('',*,*,#252,.T.);
#293=ORIENTED_EDGE('',*,*,#275,.T.);
#294=EDGE_LOOP('',(#292,#293));
#295=FACE_OUTER_BOUND('',#294,.F.);
#297=ORIENTED_EDGE('',*,*,#296,.T.);
#299=ORIENTED_EDGE('',*,*,#298,.T.);
#300=EDGE_LOOP('',(#297,#299));
#301=FACE_BOUND('',#300,.F.);
#303=ORIENTED_EDGE('',*,*,#302,.T.);
#305=ORIENTED_EDGE('',*,*,#304,.T.);
#306=EDGE_LOOP('',(#303,#305));
#307=FACE_BOUND('',#306,.F.);
#308=ADVANCED_FACE('',(#295,#301,#307),#291,.F.);
#309=FILL_AREA_STYLE_COLOUR('',#14);
#310=FILL_AREA_STYLE('',(#309));
#311=SURFACE_STYLE_FILL_AREA(#310);
#312=SURFACE_SIDE_STYLE('',(#311));
#313=SURFACE_STYLE_USAGE(.POSITIVE.,#312);
#314=PRESENTATION_STYLE_ASSIGNMENT((#313));
#315=STYLED_ITEM('',(#314),#308);
#316=CARTESIAN_POINT('',(-5.5E-1,0.E0,0.E0));
#317=DIRECTION('',(0.E0,0.E0,-1.E0));
#318=DIRECTION('',(0.E0,-1.E0,0.E0));
#319=AXIS2_PLACEMENT_3D('',#316,#317,#318);
#320=CYLINDRICAL_SURFACE('',#319,5.E-1);
#321=ORIENTED_EDGE('',*,*,#296,.F.);
#323=ORIENTED_EDGE('',*,*,#322,.F.);
#325=ORIENTED_EDGE('',*,*,#324,.F.);
#327=ORIENTED_EDGE('',*,*,#326,.T.);
#328=EDGE_LOOP('',(#321,#323,#325,#327));
#329=FACE_OUTER_BOUND('',#328,.F.);
#330=ADVANCED_FACE('',(#329),#320,.F.);
#331=FILL_AREA_STYLE_COLOUR('',#14);
#332=FILL_AREA_STYLE('',(#331));
#333=SURFACE_STYLE_FILL_AREA(#332);
#334=SURFACE_SIDE_STYLE('',(#333));
#335=SURFACE_STYLE_USAGE(.POSITIVE.,#334);
#336=PRESENTATION_STYLE_ASSIGNMENT((#335));
#337=STYLED_ITEM('',(#336),#330);
#338=CARTESIAN_POINT('',(-5.5E-1,0.E0,0.E0));
#339=DIRECTION('',(0.E0,0.E0,-1.E0));
#340=DIRECTION('',(0.E0,-1.E0,0.E0));
#341=AXIS2_PLACEMENT_3D('',#338,#339,#340);
#342=CYLINDRICAL_SURFACE('',#341,5.E-1);
#343=ORIENTED_EDGE('',*,*,#298,.F.);
#344=ORIENTED_EDGE('',*,*,#326,.F.);
#346=ORIENTED_EDGE('',*,*,#345,.F.);
#347=ORIENTED_EDGE('',*,*,#322,.T.);
#348=EDGE_LOOP('',(#343,#344,#346,#347));
#349=FACE_OUTER_BOUND('',#348,.F.);
#350=ADVANCED_FACE('',(#349),#342,.F.);
#351=FILL_AREA_STYLE_COLOUR('',#14);
#352=FILL_AREA_STYLE('',(#351));
#353=SURFACE_STYLE_FILL_AREA(#352);
#354=SURFACE_SIDE_STYLE('',(#353));
#355=SURFACE_STYLE_USAGE(.POSITIVE.,#354);
#356=PRESENTATION_STYLE_ASSIGNMENT((#355));
#357=STYLED_ITEM('',(#356),#350);
#358=CARTESIAN_POINT('',(0.E0,0.E0,1.E-1));
#359=DIRECTION('',(0.E0,0.E0,-1.E0));
#360=DIRECTION('',(0.E0,-1.E0,0.E0));
#361=AXIS2_PLACEMENT_3D('',#358,#359,#360);
#362=PLANE('',#361);
#363=ORIENTED_EDGE('',*,*,#324,.T.);
#364=ORIENTED_EDGE('',*,*,#345,.T.);
#365=EDGE_LOOP('',(#363,#364));
#366=FACE_OUTER_BOUND('',#365,.F.);
#367=ADVANCED_FACE('',(#366),#362,.T.);
#368=FILL_AREA_STYLE_COLOUR('',#14);
#369=FILL_AREA_STYLE('',(#368));
#370=SURFACE_STYLE_FILL_AREA(#369);
#371=SURFACE_SIDE_STYLE('',(#370));
#372=SURFACE_STYLE_USAGE(.POSITIVE.,#371);
#373=PRESENTATION_STYLE_ASSIGNMENT((#372));
#374=STYLED_ITEM('',(#373),#367);
#375=CARTESIAN_POINT('',(5.5E-1,0.E0,0.E0));
#376=DIRECTION('',(0.E0,0.E0,1.E0));
#377=DIRECTION('',(0.E0,-1.E0,0.E0));
#378=AXIS2_PLACEMENT_3D('',#375,#376,#377);
#379=CYLINDRICAL_SURFACE('',#378,5.E-1);
#381=ORIENTED_EDGE('',*,*,#380,.T.);
#382=ORIENTED_EDGE('',*,*,#302,.F.);
#384=ORIENTED_EDGE('',*,*,#383,.F.);
#386=ORIENTED_EDGE('',*,*,#385,.F.);
#387=EDGE_LOOP('',(#381,#382,#384,#386));
#388=FACE_OUTER_BOUND('',#387,.F.);
#389=ADVANCED_FACE('',(#388),#379,.F.);
#390=FILL_AREA_STYLE_COLOUR('',#14);
#391=FILL_AREA_STYLE('',(#390));
#392=SURFACE_STYLE_FILL_AREA(#391);
#393=SURFACE_SIDE_STYLE('',(#392));
#394=SURFACE_STYLE_USAGE(.POSITIVE.,#393);
#395=PRESENTATION_STYLE_ASSIGNMENT((#394));
#396=STYLED_ITEM('',(#395),#389);
#397=CARTESIAN_POINT('',(5.5E-1,0.E0,0.E0));
#398=DIRECTION('',(0.E0,0.E0,1.E0));
#399=DIRECTION('',(0.E0,-1.E0,0.E0));
#400=AXIS2_PLACEMENT_3D('',#397,#398,#399);
#401=CYLINDRICAL_SURFACE('',#400,5.E-1);
#402=ORIENTED_EDGE('',*,*,#380,.F.);
#404=ORIENTED_EDGE('',*,*,#403,.F.);
#405=ORIENTED_EDGE('',*,*,#383,.T.);
#406=ORIENTED_EDGE('',*,*,#304,.F.);
#407=EDGE_LOOP('',(#402,#404,#405,#406));
#408=FACE_OUTER_BOUND('',#407,.F.);
#409=ADVANCED_FACE('',(#408),#401,.F.);
#410=FILL_AREA_STYLE_COLOUR('',#14);
#411=FILL_AREA_STYLE('',(#410));
#412=SURFACE_STYLE_FILL_AREA(#411);
#413=SURFACE_SIDE_STYLE('',(#412));
#414=SURFACE_STYLE_USAGE(.POSITIVE.,#413);
#415=PRESENTATION_STYLE_ASSIGNMENT((#414));
#416=STYLED_ITEM('',(#415),#409);
#417=CARTESIAN_POINT('',(0.E0,0.E0,1.E-1));
#418=DIRECTION('',(0.E0,0.E0,1.E0));
#419=DIRECTION('',(0.E0,-1.E0,0.E0));
#420=AXIS2_PLACEMENT_3D('',#417,#418,#419);
#421=PLANE('',#420);
#422=ORIENTED_EDGE('',*,*,#385,.T.);
#423=ORIENTED_EDGE('',*,*,#403,.T.);
#424=EDGE_LOOP('',(#422,#423));
#425=FACE_OUTER_BOUND('',#424,.F.);
#426=ADVANCED_FACE('',(#425),#421,.F.);
#427=FILL_AREA_STYLE_COLOUR('',#14);
#428=FILL_AREA_STYLE('',(#427));
#429=SURFACE_STYLE_FILL_AREA(#428);
#430=SURFACE_SIDE_STYLE('',(#429));
#431=SURFACE_STYLE_USAGE(.POSITIVE.,#430);
#432=PRESENTATION_STYLE_ASSIGNMENT((#431));
#433=STYLED_ITEM('',(#432),#426);
#434=CARTESIAN_POINT('',(1.105E0,0.E0,1.7E1));
#435=DIRECTION('',(0.E0,0.E0,1.E0));
#436=DIRECTION('',(-1.E0,0.E0,0.E0));
#437=AXIS2_PLACEMENT_3D('',#434,#435,#436);
#438=CYLINDRICAL_SURFACE('',#437,1.1E0);
#439=ORIENTED_EDGE('',*,*,#225,.F.);
#441=ORIENTED_EDGE('',*,*,#440,.F.);
#443=ORIENTED_EDGE('',*,*,#442,.F.);
#445=ORIENTED_EDGE('',*,*,#444,.T.);
#446=EDGE_LOOP('',(#439,#441,#443,#445));
#447=FACE_OUTER_BOUND('',#446,.F.);
#448=ADVANCED_FACE('',(#447),#438,.T.);
#449=FILL_AREA_STYLE_COLOUR('',#14);
#450=FILL_AREA_STYLE('',(#449));
#451=SURFACE_STYLE_FILL_AREA(#450);
#452=SURFACE_SIDE_STYLE('',(#451));
#453=SURFACE_STYLE_USAGE(.POSITIVE.,#452);
#454=PRESENTATION_STYLE_ASSIGNMENT((#453));
#455=STYLED_ITEM('',(#454),#448);
#456=CARTESIAN_POINT('',(1.105E0,0.E0,1.7E1));
#457=DIRECTION('',(0.E0,0.E0,1.E0));
#458=DIRECTION('',(-1.E0,0.E0,0.E0));
#459=AXIS2_PLACEMENT_3D('',#456,#457,#458);
#460=CYLINDRICAL_SURFACE('',#459,1.1E0);
#461=ORIENTED_EDGE('',*,*,#227,.F.);
#462=ORIENTED_EDGE('',*,*,#444,.F.);
#464=ORIENTED_EDGE('',*,*,#463,.F.);
#465=ORIENTED_EDGE('',*,*,#440,.T.);
#466=EDGE_LOOP('',(#461,#462,#464,#465));
#467=FACE_OUTER_BOUND('',#466,.F.);
#468=ADVANCED_FACE('',(#467),#460,.T.);
#469=FILL_AREA_STYLE_COLOUR('',#14);
#470=FILL_AREA_STYLE('',(#469));
#471=SURFACE_STYLE_FILL_AREA(#470);
#472=SURFACE_SIDE_STYLE('',(#471));
#473=SURFACE_STYLE_USAGE(.POSITIVE.,#472);
#474=PRESENTATION_STYLE_ASSIGNMENT((#473));
#475=STYLED_ITEM('',(#474),#468);
#476=CARTESIAN_POINT('',(0.E0,0.E0,7.7E1));
#477=DIRECTION('',(0.E0,0.E0,1.E0));
#478=DIRECTION('',(-1.E0,0.E0,0.E0));
#479=AXIS2_PLACEMENT_3D('',#476,#477,#478);
#480=PLANE('',#479);
#481=ORIENTED_EDGE('',*,*,#442,.T.);
#482=ORIENTED_EDGE('',*,*,#463,.T.);
#483=EDGE_LOOP('',(#481,#482));
#484=FACE_OUTER_BOUND('',#483,.F.);
#485=ADVANCED_FACE('',(#484),#480,.T.);
#486=FILL_AREA_STYLE_COLOUR('',#14);
#487=FILL_AREA_STYLE('',(#486));
#488=SURFACE_STYLE_FILL_AREA(#487);
#489=SURFACE_SIDE_STYLE('',(#488));
#490=SURFACE_STYLE_USAGE(.POSITIVE.,#489);
#491=PRESENTATION_STYLE_ASSIGNMENT((#490));
#492=STYLED_ITEM('',(#491),#485);
#493=CARTESIAN_POINT('',(-1.105E0,0.E0,1.7E1));
#494=DIRECTION('',(0.E0,0.E0,1.E0));
#495=DIRECTION('',(-1.E0,0.E0,0.E0));
#496=AXIS2_PLACEMENT_3D('',#493,#494,#495);
#497=CYLINDRICAL_SURFACE('',#496,1.1E0);
#498=ORIENTED_EDGE('',*,*,#231,.F.);
#500=ORIENTED_EDGE('',*,*,#499,.F.);
#502=ORIENTED_EDGE('',*,*,#501,.F.);
#504=ORIENTED_EDGE('',*,*,#503,.T.);
#505=EDGE_LOOP('',(#498,#500,#502,#504));
#506=FACE_OUTER_BOUND('',#505,.F.);
#507=ADVANCED_FACE('',(#506),#497,.T.);
#508=FILL_AREA_STYLE_COLOUR('',#14);
#509=FILL_AREA_STYLE('',(#508));
#510=SURFACE_STYLE_FILL_AREA(#509);
#511=SURFACE_SIDE_STYLE('',(#510));
#512=SURFACE_STYLE_USAGE(.POSITIVE.,#511);
#513=PRESENTATION_STYLE_ASSIGNMENT((#512));
#514=STYLED_ITEM('',(#513),#507);
#515=CARTESIAN_POINT('',(-1.105E0,0.E0,1.7E1));
#516=DIRECTION('',(0.E0,0.E0,1.E0));
#517=DIRECTION('',(-1.E0,0.E0,0.E0));
#518=AXIS2_PLACEMENT_3D('',#515,#516,#517);
#519=CYLINDRICAL_SURFACE('',#518,1.1E0);
#520=ORIENTED_EDGE('',*,*,#233,.F.);
#521=ORIENTED_EDGE('',*,*,#503,.F.);
#523=ORIENTED_EDGE('',*,*,#522,.F.);
#524=ORIENTED_EDGE('',*,*,#499,.T.);
#525=EDGE_LOOP('',(#520,#521,#523,#524));
#526=FACE_OUTER_BOUND('',#525,.F.);
#527=ADVANCED_FACE('',(#526),#519,.T.);
#528=FILL_AREA_STYLE_COLOUR('',#14);
#529=FILL_AREA_STYLE('',(#528));
#530=SURFACE_STYLE_FILL_AREA(#529);
#531=SURFACE_SIDE_STYLE('',(#530));
#532=SURFACE_STYLE_USAGE(.POSITIVE.,#531);
#533=PRESENTATION_STYLE_ASSIGNMENT((#532));
#534=STYLED_ITEM('',(#533),#527);
#535=CARTESIAN_POINT('',(0.E0,0.E0,7.7E1));
#536=DIRECTION('',(0.E0,0.E0,1.E0));
#537=DIRECTION('',(-1.E0,0.E0,0.E0));
#538=AXIS2_PLACEMENT_3D('',#535,#536,#537);
#539=PLANE('',#538);
#540=ORIENTED_EDGE('',*,*,#501,.T.);
#541=ORIENTED_EDGE('',*,*,#522,.T.);
#542=EDGE_LOOP('',(#540,#541));
#543=FACE_OUTER_BOUND('',#542,.F.);
#544=ADVANCED_FACE('',(#543),#539,.T.);
#545=FILL_AREA_STYLE_COLOUR('',#14);
#546=FILL_AREA_STYLE('',(#545));
#547=SURFACE_STYLE_FILL_AREA(#546);
#548=SURFACE_SIDE_STYLE('',(#547));
#549=SURFACE_STYLE_USAGE(.POSITIVE.,#548);
#550=PRESENTATION_STYLE_ASSIGNMENT((#549));
#551=STYLED_ITEM('',(#550),#544);
#552=CLOSED_SHELL('',(#237,#259,#279,#308,#330,#350,#367,#389,#409,#426,#448,
#468,#485,#507,#527,#544));
#553=MANIFOLD_SOLID_BREP('',#552);
#555=DIMENSIONAL_EXPONENTS(0.E0,0.E0,0.E0,0.E0,0.E0,0.E0,0.E0);
#557=PLANE_ANGLE_MEASURE_WITH_UNIT(PLANE_ANGLE_MEASURE(1.745329251994E-2),#556);
#558=(CONVERSION_BASED_UNIT('DEGREE',#557)NAMED_UNIT(*)PLANE_ANGLE_UNIT());
#560=UNCERTAINTY_MEASURE_WITH_UNIT(LENGTH_MEASURE(7.732153690249E-3),#554,
'closure',
'Maximum model space distance between geometric entities at asserted connectivities');
#561=(GEOMETRIC_REPRESENTATION_CONTEXT(3)GLOBAL_UNCERTAINTY_ASSIGNED_CONTEXT((
#560))GLOBAL_UNIT_ASSIGNED_CONTEXT((#554,#558,#559))REPRESENTATION_CONTEXT
('ID1','3'));
#563=MECHANICAL_DESIGN_GEOMETRIC_PRESENTATION_REPRESENTATION('',(#244,#266,#286,
#315,#337,#357,#374,#396,#416,#433,#455,#475,#492,#514,#534,#551),#561);
#564=APPLICATION_CONTEXT(
'CONFIGURATION CONTROLLED 3D DESIGNS OF MECHANICAL PARTS AND ASSEMBLIES');
#565=APPLICATION_PROTOCOL_DEFINITION('international standard',
'config_control_design',1994,#564);
#566=DESIGN_CONTEXT('',#564,'design');
#567=MECHANICAL_CONTEXT('',#564,'mechanical');
#568=PRODUCT('FRH-520','FRH-520','NOT SPECIFIED',(#567));
#569=PRODUCT_DEFINITION_FORMATION_WITH_SPECIFIED_SOURCE('1','LAST_VERSION',#568,
.MADE.);
#573=PRODUCT_CATEGORY('part','');
#574=PRODUCT_RELATED_PRODUCT_CATEGORY('detail','',(#568));
#575=PRODUCT_CATEGORY_RELATIONSHIP('','',#573,#574);
#576=SECURITY_CLASSIFICATION_LEVEL('unclassified');
#577=SECURITY_CLASSIFICATION('','',#576);
#578=CC_DESIGN_SECURITY_CLASSIFICATION(#577,(#569));
#579=APPROVAL_STATUS('approved');
#580=APPROVAL(#579,'');
#581=CC_DESIGN_APPROVAL(#580,(#577,#569,#570));
#582=CALENDAR_DATE(116,23,8);
#583=COORDINATED_UNIVERSAL_TIME_OFFSET(2,0,.AHEAD.);
#584=LOCAL_TIME(15,34,2.3E1,#583);
#585=DATE_AND_TIME(#582,#584);
#586=APPROVAL_DATE_TIME(#585,#580);
#587=DATE_TIME_ROLE('creation_date');
#588=CC_DESIGN_DATE_AND_TIME_ASSIGNMENT(#585,#587,(#570));
#589=DATE_TIME_ROLE('classification_date');
#590=CC_DESIGN_DATE_AND_TIME_ASSIGNMENT(#585,#589,(#577));
#591=PERSON('UNSPECIFIED','UNSPECIFIED',$,$,$,$);
#592=ORGANIZATION('UNSPECIFIED','UNSPECIFIED','UNSPECIFIED');
#593=PERSON_AND_ORGANIZATION(#591,#592);
#594=APPROVAL_ROLE('approver');
#595=APPROVAL_PERSON_ORGANIZATION(#593,#580,#594);
#596=PERSON_AND_ORGANIZATION_ROLE('creator');
#597=CC_DESIGN_PERSON_AND_ORGANIZATION_ASSIGNMENT(#593,#596,(#569,#570));
#598=PERSON_AND_ORGANIZATION_ROLE('design_supplier');
#599=CC_DESIGN_PERSON_AND_ORGANIZATION_ASSIGNMENT(#593,#598,(#569));
#600=PERSON_AND_ORGANIZATION_ROLE('classification_officer');
#601=CC_DESIGN_PERSON_AND_ORGANIZATION_ASSIGNMENT(#593,#600,(#577));
#602=PERSON_AND_ORGANIZATION_ROLE('design_owner');
#603=CC_DESIGN_PERSON_AND_ORGANIZATION_ASSIGNMENT(#593,#602,(#568));
#1=COLOUR_RGB('',0.E0,0.E0,1.96E-1);
#2=COLOUR_RGB('',0.E0,0.E0,3.14E-1);
#3=COLOUR_RGB('',0.E0,1.96E-1,0.E0);
#4=COLOUR_RGB('',0.E0,3.14E-1,0.E0);
#5=COLOUR_RGB('',7.8E-2,7.8E-2,7.8E-2);
#6=COLOUR_RGB('',1.18E-1,1.18E-1,4.71E-1);
#7=COLOUR_RGB('',1.57E-1,1.57E-1,1.57E-1);
#8=COLOUR_RGB('',1.96E-1,0.E0,0.E0);
#9=COLOUR_RGB('',1.96E-1,0.E0,1.96E-1);
#10=COLOUR_RGB('',1.96E-1,5.88E-1,1.96E-1);
#11=COLOUR_RGB('',2.35E-1,2.35E-1,2.35E-1);
#12=COLOUR_RGB('',2.35E-1,2.35E-1,5.88E-1);
#13=COLOUR_RGB('',3.14E-1,3.14E-1,3.14E-1);
#14=COLOUR_RGB('',3.27543E-1,1.E0,6.33116E-1);
#15=COLOUR_RGB('',3.92E-1,0.E0,0.E0);
#16=COLOUR_RGB('',3.92E-1,0.E0,3.92E-1);
#17=COLOUR_RGB('',3.92E-1,3.92E-1,3.92E-1);
#18=COLOUR_RGB('',3.92E-1,3.92E-1,8.63E-1);
#19=COLOUR_RGB('',3.92E-1,5.88E-1,3.92E-1);
#20=COLOUR_RGB('',3.92E-1,5.88E-1,8.63E-1);
#21=COLOUR_RGB('',5.01961E-1,1.E0,5.01961E-1);
#22=COLOUR_RGB('',5.5E-1,5.6E-1,7.E-1);
#23=COLOUR_RGB('',5.88E-1,5.88E-1,5.88E-1);
#24=COLOUR_RGB('',5.88E-1,7.84E-1,5.88E-1);
#25=COLOUR_RGB('',6.2E-1,3.1E-1,6.5E-1);
#26=COLOUR_RGB('',6.8E-1,8.5E-1,1.E0);
#27=COLOUR_RGB('',6.952E-1,7.426E-1,7.9E-1);
#28=COLOUR_RGB('',7.960784313725E-1,8.235294117647E-1,9.372549019608E-1);
#29=COLOUR_RGB('',9.8E-1,3.92E-1,0.E0);
#30=COLOUR_RGB('',9.8E-1,5.88E-1,0.E0);
#31=COLOUR_RGB('',9.8E-1,7.84E-1,0.E0);
#32=COLOUR_RGB('',1.E0,3.7E-1,3.8E-1);
#33=DRAUGHTING_PRE_DEFINED_COLOUR('white');
#38=CIRCLE('',#37,2.5E0);
#43=CIRCLE('',#42,2.5E0);
#48=CIRCLE('',#47,1.1E0);
#53=CIRCLE('',#52,1.1E0);
#58=CIRCLE('',#57,1.1E0);
#63=CIRCLE('',#62,1.1E0);
#76=CIRCLE('',#75,2.5E0);
#81=CIRCLE('',#80,2.5E0);
#86=CIRCLE('',#85,5.E-1);
#91=CIRCLE('',#90,5.E-1);
#96=CIRCLE('',#95,5.E-1);
#101=CIRCLE('',#100,5.E-1);
#114=CIRCLE('',#113,5.E-1);
#119=CIRCLE('',#118,5.E-1);
#132=CIRCLE('',#131,5.E-1);
#137=CIRCLE('',#136,5.E-1);
#150=CIRCLE('',#149,1.1E0);
#155=CIRCLE('',#154,1.1E0);
#168=CIRCLE('',#167,1.1E0);
#173=CIRCLE('',#172,1.1E0);
#219=EDGE_CURVE('',#176,#177,#38,.T.);
#221=EDGE_CURVE('',#177,#176,#43,.T.);
#225=EDGE_CURVE('',#180,#181,#48,.T.);
#227=EDGE_CURVE('',#181,#180,#53,.T.);
#231=EDGE_CURVE('',#184,#185,#58,.T.);
#233=EDGE_CURVE('',#185,#184,#63,.T.);
#250=EDGE_CURVE('',#187,#176,#71,.T.);
#252=EDGE_CURVE('',#189,#187,#76,.T.);
#254=EDGE_CURVE('',#189,#177,#67,.T.);
#275=EDGE_CURVE('',#187,#189,#81,.T.);
#296=EDGE_CURVE('',#192,#193,#86,.T.);
#298=EDGE_CURVE('',#193,#192,#91,.T.);
#302=EDGE_CURVE('',#196,#197,#96,.T.);
#304=EDGE_CURVE('',#197,#196,#101,.T.);
#322=EDGE_CURVE('',#199,#192,#109,.T.);
#324=EDGE_CURVE('',#201,#199,#114,.T.);
#326=EDGE_CURVE('',#201,#193,#105,.T.);
#345=EDGE_CURVE('',#199,#201,#119,.T.);
#380=EDGE_CURVE('',#203,#197,#123,.T.);
#383=EDGE_CURVE('',#205,#196,#127,.T.);
#385=EDGE_CURVE('',#203,#205,#132,.T.);
#403=EDGE_CURVE('',#205,#203,#137,.T.);
#440=EDGE_CURVE('',#207,#180,#145,.T.);
#442=EDGE_CURVE('',#209,#207,#150,.T.);
#444=EDGE_CURVE('',#209,#181,#141,.T.);
#463=EDGE_CURVE('',#207,#209,#155,.T.);
#499=EDGE_CURVE('',#211,#184,#163,.T.);
#501=EDGE_CURVE('',#213,#211,#168,.T.);
#503=EDGE_CURVE('',#213,#185,#159,.T.);
#522=EDGE_CURVE('',#211,#213,#173,.T.);
#554=(LENGTH_UNIT()NAMED_UNIT(*)SI_UNIT(.MILLI.,.METRE.));
#556=(NAMED_UNIT(*)PLANE_ANGLE_UNIT()SI_UNIT($,.RADIAN.));
#559=(NAMED_UNIT(*)SI_UNIT($,.STERADIAN.)SOLID_ANGLE_UNIT());
#562=ADVANCED_BREP_SHAPE_REPRESENTATION('',(#553),#561);
#570=PRODUCT_DEFINITION('design','',#569,#566);
#571=PRODUCT_DEFINITION_SHAPE('','SHAPE FOR FRH-520.',#570);
#572=SHAPE_DEFINITION_REPRESENTATION(#571,#562);
ENDSEC;
END-ISO-10303-21;
