ISO-10303-21;
HEADER;
FILE_DESCRIPTION((''),'2;1');
FILE_NAME('CAD2406NEU1','2016-09-08T',('cmozuch'),(''),
'PRO/ENGINEER BY PARAMETRIC TECHNOLOGY CORPORATION, 2015440',
'PRO/ENGINEER BY PARAMETRIC TECHNOLOGY CORPORATION, 2015440','');
FILE_SCHEMA(('CONFIG_CONTROL_DESIGN'));
ENDSEC;
DATA;
#33=CARTESIAN_POINT('',(2.646202249198E-1,-1.481417685087E0,7.868683701036E1));
#34=DIRECTION('',(0.E0,0.E0,1.E0));
#35=DIRECTION('',(1.E0,0.E0,0.E0));
#36=AXIS2_PLACEMENT_3D('',#33,#34,#35);
#38=CARTESIAN_POINT('',(2.646202249198E-1,-1.481417685087E0,7.868683701036E1));
#39=DIRECTION('',(0.E0,0.E0,1.E0));
#40=DIRECTION('',(-1.E0,0.E0,0.E0));
#41=AXIS2_PLACEMENT_3D('',#38,#39,#40);
#43=DIRECTION('',(0.E0,0.E0,-1.E0));
#44=VECTOR('',#43,6.E1);
#45=CARTESIAN_POINT('',(1.364620224920E0,-1.481417685087E0,7.868683701036E1));
#46=LINE('',#45,#44);
#47=CARTESIAN_POINT('',(2.646202249198E-1,-1.481417685087E0,1.868683701036E1));
#48=DIRECTION('',(0.E0,0.E0,1.E0));
#49=DIRECTION('',(1.E0,0.E0,0.E0));
#50=AXIS2_PLACEMENT_3D('',#47,#48,#49);
#52=CARTESIAN_POINT('',(2.646202249198E-1,-1.481417685087E0,1.868683701036E1));
#53=DIRECTION('',(0.E0,0.E0,1.E0));
#54=DIRECTION('',(-1.E0,0.E0,0.E0));
#55=AXIS2_PLACEMENT_3D('',#52,#53,#54);
#57=CARTESIAN_POINT('',(2.646202249198E-1,-1.481417685087E0,1.868683701036E1));
#58=DIRECTION('',(0.E0,0.E0,-1.E0));
#59=DIRECTION('',(1.E0,0.E0,0.E0));
#60=AXIS2_PLACEMENT_3D('',#57,#58,#59);
#62=CARTESIAN_POINT('',(2.646202249198E-1,-1.481417685087E0,1.868683701036E1));
#63=DIRECTION('',(0.E0,0.E0,-1.E0));
#64=DIRECTION('',(-1.E0,0.E0,0.E0));
#65=AXIS2_PLACEMENT_3D('',#62,#63,#64);
#67=DIRECTION('',(0.E0,0.E0,-1.E0));
#68=VECTOR('',#67,1.7E1);
#69=CARTESIAN_POINT('',(2.764620224920E0,-1.481417685087E0,1.868683701036E1));
#70=LINE('',#69,#68);
#71=CARTESIAN_POINT('',(2.646202249198E-1,-1.481417685087E0,1.686837010363E0));
#72=DIRECTION('',(0.E0,0.E0,-1.E0));
#73=DIRECTION('',(1.E0,0.E0,0.E0));
#74=AXIS2_PLACEMENT_3D('',#71,#72,#73);
#76=CARTESIAN_POINT('',(2.646202249198E-1,-1.481417685087E0,1.686837010363E0));
#77=DIRECTION('',(0.E0,0.E0,-1.E0));
#78=DIRECTION('',(-1.E0,0.E0,0.E0));
#79=AXIS2_PLACEMENT_3D('',#76,#77,#78);
#81=CARTESIAN_POINT('',(2.646202249198E-1,-1.481417685087E0,1.686837010363E0));
#82=DIRECTION('',(0.E0,0.E0,1.E0));
#83=DIRECTION('',(1.E0,0.E0,0.E0));
#84=AXIS2_PLACEMENT_3D('',#81,#82,#83);
#86=CARTESIAN_POINT('',(2.646202249198E-1,-1.481417685087E0,1.686837010363E0));
#87=DIRECTION('',(0.E0,0.E0,1.E0));
#88=DIRECTION('',(-1.E0,0.E0,0.E0));
#89=AXIS2_PLACEMENT_3D('',#86,#87,#88);
#91=DIRECTION('',(0.E0,0.E0,-1.E0));
#92=VECTOR('',#91,1.7E1);
#93=CARTESIAN_POINT('',(-2.235379775080E0,-1.481417685087E0,1.868683701036E1));
#94=LINE('',#93,#92);
#95=DIRECTION('',(0.E0,0.E0,1.E0));
#96=VECTOR('',#95,1.E-1);
#97=CARTESIAN_POINT('',(7.646202249198E-1,-1.481417685087E0,1.686837010363E0));
#98=LINE('',#97,#96);
#99=DIRECTION('',(0.E0,0.E0,1.E0));
#100=VECTOR('',#99,1.E-1);
#101=CARTESIAN_POINT('',(-2.353797750802E-1,-1.481417685087E0,
1.686837010363E0));
#102=LINE('',#101,#100);
#103=CARTESIAN_POINT('',(2.646202249198E-1,-1.481417685087E0,1.786837010363E0));
#104=DIRECTION('',(0.E0,0.E0,-1.E0));
#105=DIRECTION('',(1.E0,0.E0,0.E0));
#106=AXIS2_PLACEMENT_3D('',#103,#104,#105);
#108=CARTESIAN_POINT('',(2.646202249198E-1,-1.481417685087E0,1.786837010363E0));
#109=DIRECTION('',(0.E0,0.E0,-1.E0));
#110=DIRECTION('',(-1.E0,0.E0,0.E0));
#111=AXIS2_PLACEMENT_3D('',#108,#109,#110);
#113=DIRECTION('',(0.E0,0.E0,-1.E0));
#114=VECTOR('',#113,6.E1);
#115=CARTESIAN_POINT('',(-8.353797750802E-1,-1.481417685087E0,
7.868683701036E1));
#116=LINE('',#115,#114);
#117=CARTESIAN_POINT('',(-2.353797750802E-1,-1.481417685087E0,
1.686837010363E0));
#118=CARTESIAN_POINT('',(7.646202249198E-1,-1.481417685087E0,1.686837010363E0));
#119=VERTEX_POINT('',#117);
#120=VERTEX_POINT('',#118);
#121=CARTESIAN_POINT('',(7.646202249198E-1,-1.481417685087E0,1.786837010363E0));
#122=VERTEX_POINT('',#121);
#123=CARTESIAN_POINT('',(-2.353797750802E-1,-1.481417685087E0,
1.786837010363E0));
#124=VERTEX_POINT('',#123);
#125=CARTESIAN_POINT('',(2.764620224920E0,-1.481417685087E0,1.868683701036E1));
#126=CARTESIAN_POINT('',(2.764620224920E0,-1.481417685087E0,1.686837010363E0));
#127=VERTEX_POINT('',#125);
#128=VERTEX_POINT('',#126);
#129=CARTESIAN_POINT('',(-2.235379775080E0,-1.481417685087E0,1.868683701036E1));
#130=VERTEX_POINT('',#129);
#131=CARTESIAN_POINT('',(-2.235379775080E0,-1.481417685087E0,1.686837010363E0));
#132=VERTEX_POINT('',#131);
#133=CARTESIAN_POINT('',(-8.353797750802E-1,-1.481417685087E0,
1.868683701036E1));
#134=CARTESIAN_POINT('',(1.364620224920E0,-1.481417685087E0,1.868683701036E1));
#135=VERTEX_POINT('',#133);
#136=VERTEX_POINT('',#134);
#137=CARTESIAN_POINT('',(1.364620224920E0,-1.481417685087E0,7.868683701036E1));
#138=VERTEX_POINT('',#137);
#139=CARTESIAN_POINT('',(-8.353797750802E-1,-1.481417685087E0,
7.868683701036E1));
#140=VERTEX_POINT('',#139);
#141=CARTESIAN_POINT('',(1.457409500412E0,-2.886284095948E-1,7.868683701036E1));
#142=DIRECTION('',(0.E0,0.E0,1.E0));
#143=DIRECTION('',(-1.E0,0.E0,0.E0));
#144=AXIS2_PLACEMENT_3D('',#141,#142,#143);
#145=PLANE('',#144);
#147=ORIENTED_EDGE('',*,*,#146,.F.);
#149=ORIENTED_EDGE('',*,*,#148,.F.);
#150=EDGE_LOOP('',(#147,#149));
#151=FACE_OUTER_BOUND('',#150,.F.);
#152=ADVANCED_FACE('',(#151),#145,.T.);
#153=FILL_AREA_STYLE_COLOUR('',#14);
#154=FILL_AREA_STYLE('',(#153));
#155=SURFACE_STYLE_FILL_AREA(#154);
#156=SURFACE_SIDE_STYLE('',(#155));
#157=SURFACE_STYLE_USAGE(.POSITIVE.,#156);
#158=PRESENTATION_STYLE_ASSIGNMENT((#157));
#159=STYLED_ITEM('',(#158),#152);
#160=CARTESIAN_POINT('',(2.646202249198E-1,-1.481417685087E0,1.868683701036E1));
#161=DIRECTION('',(0.E0,0.E0,1.E0));
#162=DIRECTION('',(1.E0,0.E0,0.E0));
#163=AXIS2_PLACEMENT_3D('',#160,#161,#162);
#164=CYLINDRICAL_SURFACE('',#163,1.1E0);
#166=ORIENTED_EDGE('',*,*,#165,.T.);
#168=ORIENTED_EDGE('',*,*,#167,.F.);
#169=ORIENTED_EDGE('',*,*,#146,.T.);
#171=ORIENTED_EDGE('',*,*,#170,.T.);
#172=EDGE_LOOP('',(#166,#168,#169,#171));
#173=FACE_OUTER_BOUND('',#172,.F.);
#174=ADVANCED_FACE('',(#173),#164,.T.);
#175=FILL_AREA_STYLE_COLOUR('',#14);
#176=FILL_AREA_STYLE('',(#175));
#177=SURFACE_STYLE_FILL_AREA(#176);
#178=SURFACE_SIDE_STYLE('',(#177));
#179=SURFACE_STYLE_USAGE(.POSITIVE.,#178);
#180=PRESENTATION_STYLE_ASSIGNMENT((#179));
#181=STYLED_ITEM('',(#180),#174);
#182=CARTESIAN_POINT('',(2.867855438531E0,-4.081417685087E0,1.868683701036E1));
#183=DIRECTION('',(0.E0,0.E0,1.E0));
#184=DIRECTION('',(0.E0,1.E0,0.E0));
#185=AXIS2_PLACEMENT_3D('',#182,#183,#184);
#186=PLANE('',#185);
#188=ORIENTED_EDGE('',*,*,#187,.F.);
#190=ORIENTED_EDGE('',*,*,#189,.F.);
#191=EDGE_LOOP('',(#188,#190));
#192=FACE_OUTER_BOUND('',#191,.F.);
#194=ORIENTED_EDGE('',*,*,#193,.F.);
#195=ORIENTED_EDGE('',*,*,#165,.F.);
#196=EDGE_LOOP('',(#194,#195));
#197=FACE_BOUND('',#196,.F.);
#198=ADVANCED_FACE('',(#192,#197),#186,.T.);
#199=FILL_AREA_STYLE_COLOUR('',#14);
#200=FILL_AREA_STYLE('',(#199));
#201=SURFACE_STYLE_FILL_AREA(#200);
#202=SURFACE_SIDE_STYLE('',(#201));
#203=SURFACE_STYLE_USAGE(.POSITIVE.,#202);
#204=PRESENTATION_STYLE_ASSIGNMENT((#203));
#205=STYLED_ITEM('',(#204),#198);
#206=CARTESIAN_POINT('',(2.646202249198E-1,-1.481417685087E0,1.686837010363E0));
#207=DIRECTION('',(0.E0,0.E0,1.E0));
#208=DIRECTION('',(1.E0,0.E0,0.E0));
#209=AXIS2_PLACEMENT_3D('',#206,#207,#208);
#210=CYLINDRICAL_SURFACE('',#209,2.5E0);
#212=ORIENTED_EDGE('',*,*,#211,.T.);
#214=ORIENTED_EDGE('',*,*,#213,.F.);
#215=ORIENTED_EDGE('',*,*,#187,.T.);
#217=ORIENTED_EDGE('',*,*,#216,.T.);
#218=EDGE_LOOP('',(#212,#214,#215,#217));
#219=FACE_OUTER_BOUND('',#218,.F.);
#220=ADVANCED_FACE('',(#219),#210,.T.);
#221=FILL_AREA_STYLE_COLOUR('',#14);
#222=FILL_AREA_STYLE('',(#221));
#223=SURFACE_STYLE_FILL_AREA(#222);
#224=SURFACE_SIDE_STYLE('',(#223));
#225=SURFACE_STYLE_USAGE(.POSITIVE.,#224);
#226=PRESENTATION_STYLE_ASSIGNMENT((#225));
#227=STYLED_ITEM('',(#226),#220);
#228=CARTESIAN_POINT('',(2.867855438531E0,-4.081417685087E0,1.686837010363E0));
#229=DIRECTION('',(0.E0,0.E0,1.E0));
#230=DIRECTION('',(0.E0,1.E0,0.E0));
#231=AXIS2_PLACEMENT_3D('',#228,#229,#230);
#232=PLANE('',#231);
#234=ORIENTED_EDGE('',*,*,#233,.F.);
#235=ORIENTED_EDGE('',*,*,#211,.F.);
#236=EDGE_LOOP('',(#234,#235));
#237=FACE_OUTER_BOUND('',#236,.F.);
#239=ORIENTED_EDGE('',*,*,#238,.F.);
#241=ORIENTED_EDGE('',*,*,#240,.F.);
#242=EDGE_LOOP('',(#239,#241));
#243=FACE_BOUND('',#242,.F.);
#244=ADVANCED_FACE('',(#237,#243),#232,.F.);
#245=FILL_AREA_STYLE_COLOUR('',#14);
#246=FILL_AREA_STYLE('',(#245));
#247=SURFACE_STYLE_FILL_AREA(#246);
#248=SURFACE_SIDE_STYLE('',(#247));
#249=SURFACE_STYLE_USAGE(.POSITIVE.,#248);
#250=PRESENTATION_STYLE_ASSIGNMENT((#249));
#251=STYLED_ITEM('',(#250),#244);
#252=CARTESIAN_POINT('',(2.646202249198E-1,-1.481417685087E0,1.686837010363E0));
#253=DIRECTION('',(0.E0,0.E0,1.E0));
#254=DIRECTION('',(1.E0,0.E0,0.E0));
#255=AXIS2_PLACEMENT_3D('',#252,#253,#254);
#256=CYLINDRICAL_SURFACE('',#255,2.5E0);
#257=ORIENTED_EDGE('',*,*,#216,.F.);
#258=ORIENTED_EDGE('',*,*,#189,.T.);
#259=ORIENTED_EDGE('',*,*,#213,.T.);
#260=ORIENTED_EDGE('',*,*,#233,.T.);
#261=EDGE_LOOP('',(#257,#258,#259,#260));
#262=FACE_OUTER_BOUND('',#261,.F.);
#263=ADVANCED_FACE('',(#262),#256,.T.);
#264=FILL_AREA_STYLE_COLOUR('',#14);
#265=FILL_AREA_STYLE('',(#264));
#266=SURFACE_STYLE_FILL_AREA(#265);
#267=SURFACE_SIDE_STYLE('',(#266));
#268=SURFACE_STYLE_USAGE(.POSITIVE.,#267);
#269=PRESENTATION_STYLE_ASSIGNMENT((#268));
#270=STYLED_ITEM('',(#269),#263);
#271=CARTESIAN_POINT('',(2.646202249198E-1,-1.481417685087E0,1.786837010363E0));
#272=DIRECTION('',(0.E0,0.E0,-1.E0));
#273=DIRECTION('',(-1.E0,0.E0,0.E0));
#274=AXIS2_PLACEMENT_3D('',#271,#272,#273);
#275=CYLINDRICAL_SURFACE('',#274,5.E-1);
#277=ORIENTED_EDGE('',*,*,#276,.F.);
#278=ORIENTED_EDGE('',*,*,#238,.T.);
#280=ORIENTED_EDGE('',*,*,#279,.T.);
#282=ORIENTED_EDGE('',*,*,#281,.T.);
#283=EDGE_LOOP('',(#277,#278,#280,#282));
#284=FACE_OUTER_BOUND('',#283,.F.);
#285=ADVANCED_FACE('',(#284),#275,.F.);
#286=FILL_AREA_STYLE_COLOUR('',#14);
#287=FILL_AREA_STYLE('',(#286));
#288=SURFACE_STYLE_FILL_AREA(#287);
#289=SURFACE_SIDE_STYLE('',(#288));
#290=SURFACE_STYLE_USAGE(.POSITIVE.,#289);
#291=PRESENTATION_STYLE_ASSIGNMENT((#290));
#292=STYLED_ITEM('',(#291),#285);
#293=CARTESIAN_POINT('',(2.646202249198E-1,-1.481417685087E0,1.786837010363E0));
#294=DIRECTION('',(0.E0,0.E0,-1.E0));
#295=DIRECTION('',(-1.E0,0.E0,0.E0));
#296=AXIS2_PLACEMENT_3D('',#293,#294,#295);
#297=CYLINDRICAL_SURFACE('',#296,5.E-1);
#299=ORIENTED_EDGE('',*,*,#298,.T.);
#300=ORIENTED_EDGE('',*,*,#279,.F.);
#301=ORIENTED_EDGE('',*,*,#240,.T.);
#302=ORIENTED_EDGE('',*,*,#276,.T.);
#303=EDGE_LOOP('',(#299,#300,#301,#302));
#304=FACE_OUTER_BOUND('',#303,.F.);
#305=ADVANCED_FACE('',(#304),#297,.F.);
#306=FILL_AREA_STYLE_COLOUR('',#14);
#307=FILL_AREA_STYLE('',(#306));
#308=SURFACE_STYLE_FILL_AREA(#307);
#309=SURFACE_SIDE_STYLE('',(#308));
#310=SURFACE_STYLE_USAGE(.POSITIVE.,#309);
#311=PRESENTATION_STYLE_ASSIGNMENT((#310));
#312=STYLED_ITEM('',(#311),#305);
#313=CARTESIAN_POINT('',(-3.281690505719E-1,-8.886284095951E-1,
1.786837010363E0));
#314=DIRECTION('',(0.E0,0.E0,-1.E0));
#315=DIRECTION('',(1.E0,0.E0,0.E0));
#316=AXIS2_PLACEMENT_3D('',#313,#314,#315);
#317=PLANE('',#316);
#318=ORIENTED_EDGE('',*,*,#298,.F.);
#319=ORIENTED_EDGE('',*,*,#281,.F.);
#320=EDGE_LOOP('',(#318,#319));
#321=FACE_OUTER_BOUND('',#320,.F.);
#322=ADVANCED_FACE('',(#321),#317,.T.);
#323=FILL_AREA_STYLE_COLOUR('',#14);
#324=FILL_AREA_STYLE('',(#323));
#325=SURFACE_STYLE_FILL_AREA(#324);
#326=SURFACE_SIDE_STYLE('',(#325));
#327=SURFACE_STYLE_USAGE(.POSITIVE.,#326);
#328=PRESENTATION_STYLE_ASSIGNMENT((#327));
#329=STYLED_ITEM('',(#328),#322);
#330=CARTESIAN_POINT('',(2.646202249198E-1,-1.481417685087E0,1.868683701036E1));
#331=DIRECTION('',(0.E0,0.E0,1.E0));
#332=DIRECTION('',(1.E0,0.E0,0.E0));
#333=AXIS2_PLACEMENT_3D('',#330,#331,#332);
#334=CYLINDRICAL_SURFACE('',#333,1.1E0);
#335=ORIENTED_EDGE('',*,*,#170,.F.);
#336=ORIENTED_EDGE('',*,*,#148,.T.);
#337=ORIENTED_EDGE('',*,*,#167,.T.);
#338=ORIENTED_EDGE('',*,*,#193,.T.);
#339=EDGE_LOOP('',(#335,#336,#337,#338));
#340=FACE_OUTER_BOUND('',#339,.F.);
#341=ADVANCED_FACE('',(#340),#334,.T.);
#342=FILL_AREA_STYLE_COLOUR('',#14);
#343=FILL_AREA_STYLE('',(#342));
#344=SURFACE_STYLE_FILL_AREA(#343);
#345=SURFACE_SIDE_STYLE('',(#344));
#346=SURFACE_STYLE_USAGE(.POSITIVE.,#345);
#347=PRESENTATION_STYLE_ASSIGNMENT((#346));
#348=STYLED_ITEM('',(#347),#341);
#349=CLOSED_SHELL('',(#152,#174,#198,#220,#244,#263,#285,#305,#322,#341));
#350=MANIFOLD_SOLID_BREP('',#349);
#352=DIMENSIONAL_EXPONENTS(0.E0,0.E0,0.E0,0.E0,0.E0,0.E0,0.E0);
#354=PLANE_ANGLE_MEASURE_WITH_UNIT(PLANE_ANGLE_MEASURE(1.745329251994E-2),#353);
#355=(CONVERSION_BASED_UNIT('DEGREE',#354)NAMED_UNIT(*)PLANE_ANGLE_UNIT());
#357=UNCERTAINTY_MEASURE_WITH_UNIT(LENGTH_MEASURE(7.732153690249E-3),#351,
'closure',
'Maximum model space distance between geometric entities at asserted connectivities');
#358=(GEOMETRIC_REPRESENTATION_CONTEXT(3)GLOBAL_UNCERTAINTY_ASSIGNED_CONTEXT((
#357))GLOBAL_UNIT_ASSIGNED_CONTEXT((#351,#355,#356))REPRESENTATION_CONTEXT
('ID1','3'));
#360=MECHANICAL_DESIGN_GEOMETRIC_PRESENTATION_REPRESENTATION('',(#159,#181,#205,
#227,#251,#270,#292,#312,#329,#348),#358);
#361=APPLICATION_CONTEXT(
'CONFIGURATION CONTROLLED 3D DESIGNS OF MECHANICAL PARTS AND ASSEMBLIES');
#362=APPLICATION_PROTOCOL_DEFINITION('international standard',
'config_control_design',1994,#361);
#363=DESIGN_CONTEXT('',#361,'design');
#364=MECHANICAL_CONTEXT('',#361,'mechanical');
#365=PRODUCT('CAD2406NEU1','CAD2406NEU1','NOT SPECIFIED',(#364));
#366=PRODUCT_DEFINITION_FORMATION_WITH_SPECIFIED_SOURCE('1','LAST_VERSION',#365,
.MADE.);
#370=PRODUCT_CATEGORY('part','');
#371=PRODUCT_RELATED_PRODUCT_CATEGORY('detail','',(#365));
#372=PRODUCT_CATEGORY_RELATIONSHIP('','',#370,#371);
#373=SECURITY_CLASSIFICATION_LEVEL('unclassified');
#374=SECURITY_CLASSIFICATION('','',#373);
#375=CC_DESIGN_SECURITY_CLASSIFICATION(#374,(#366));
#376=APPROVAL_STATUS('approved');
#377=APPROVAL(#376,'');
#378=CC_DESIGN_APPROVAL(#377,(#374,#366,#367));
#379=CALENDAR_DATE(116,8,9);
#380=COORDINATED_UNIVERSAL_TIME_OFFSET(2,0,.AHEAD.);
#381=LOCAL_TIME(10,43,5.E0,#380);
#382=DATE_AND_TIME(#379,#381);
#383=APPROVAL_DATE_TIME(#382,#377);
#384=DATE_TIME_ROLE('creation_date');
#385=CC_DESIGN_DATE_AND_TIME_ASSIGNMENT(#382,#384,(#367));
#386=DATE_TIME_ROLE('classification_date');
#387=CC_DESIGN_DATE_AND_TIME_ASSIGNMENT(#382,#386,(#374));
#388=PERSON('UNSPECIFIED','UNSPECIFIED',$,$,$,$);
#389=ORGANIZATION('UNSPECIFIED','UNSPECIFIED','UNSPECIFIED');
#390=PERSON_AND_ORGANIZATION(#388,#389);
#391=APPROVAL_ROLE('approver');
#392=APPROVAL_PERSON_ORGANIZATION(#390,#377,#391);
#393=PERSON_AND_ORGANIZATION_ROLE('creator');
#394=CC_DESIGN_PERSON_AND_ORGANIZATION_ASSIGNMENT(#390,#393,(#366,#367));
#395=PERSON_AND_ORGANIZATION_ROLE('design_supplier');
#396=CC_DESIGN_PERSON_AND_ORGANIZATION_ASSIGNMENT(#390,#395,(#366));
#397=PERSON_AND_ORGANIZATION_ROLE('classification_officer');
#398=CC_DESIGN_PERSON_AND_ORGANIZATION_ASSIGNMENT(#390,#397,(#374));
#399=PERSON_AND_ORGANIZATION_ROLE('design_owner');
#400=CC_DESIGN_PERSON_AND_ORGANIZATION_ASSIGNMENT(#390,#399,(#365));
#1=COLOUR_RGB('',0.E0,0.E0,1.96E-1);
#2=COLOUR_RGB('',0.E0,0.E0,3.14E-1);
#3=COLOUR_RGB('',0.E0,1.96E-1,0.E0);
#4=COLOUR_RGB('',0.E0,3.14E-1,0.E0);
#5=COLOUR_RGB('',7.8E-2,7.8E-2,7.8E-2);
#6=COLOUR_RGB('',1.18E-1,1.18E-1,4.71E-1);
#7=COLOUR_RGB('',1.57E-1,1.57E-1,1.57E-1);
#8=COLOUR_RGB('',1.96E-1,0.E0,0.E0);
#9=COLOUR_RGB('',1.96E-1,0.E0,1.96E-1);
#10=COLOUR_RGB('',1.96E-1,5.88E-1,1.96E-1);
#11=COLOUR_RGB('',2.35E-1,2.35E-1,2.35E-1);
#12=COLOUR_RGB('',2.35E-1,2.35E-1,5.88E-1);
#13=COLOUR_RGB('',3.14E-1,3.14E-1,3.14E-1);
#14=COLOUR_RGB('',3.27543E-1,1.E0,6.33116E-1);
#15=COLOUR_RGB('',3.92E-1,0.E0,0.E0);
#16=COLOUR_RGB('',3.92E-1,0.E0,3.92E-1);
#17=COLOUR_RGB('',3.92E-1,3.92E-1,3.92E-1);
#18=COLOUR_RGB('',3.92E-1,3.92E-1,8.63E-1);
#19=COLOUR_RGB('',3.92E-1,5.88E-1,3.92E-1);
#20=COLOUR_RGB('',3.92E-1,5.88E-1,8.63E-1);
#21=COLOUR_RGB('',5.01961E-1,1.E0,5.01961E-1);
#22=COLOUR_RGB('',5.5E-1,5.6E-1,7.E-1);
#23=COLOUR_RGB('',5.88E-1,5.88E-1,5.88E-1);
#24=COLOUR_RGB('',5.88E-1,7.84E-1,5.88E-1);
#25=COLOUR_RGB('',6.2E-1,3.1E-1,6.5E-1);
#26=COLOUR_RGB('',6.8E-1,8.5E-1,1.E0);
#27=COLOUR_RGB('',6.952E-1,7.426E-1,7.9E-1);
#28=COLOUR_RGB('',9.8E-1,3.92E-1,0.E0);
#29=COLOUR_RGB('',9.8E-1,5.88E-1,0.E0);
#30=COLOUR_RGB('',9.8E-1,7.84E-1,0.E0);
#31=COLOUR_RGB('',1.E0,3.7E-1,3.8E-1);
#32=DRAUGHTING_PRE_DEFINED_COLOUR('white');
#37=CIRCLE('',#36,1.1E0);
#42=CIRCLE('',#41,1.1E0);
#51=CIRCLE('',#50,2.5E0);
#56=CIRCLE('',#55,2.5E0);
#61=CIRCLE('',#60,1.1E0);
#66=CIRCLE('',#65,1.1E0);
#75=CIRCLE('',#74,2.5E0);
#80=CIRCLE('',#79,2.5E0);
#85=CIRCLE('',#84,5.E-1);
#90=CIRCLE('',#89,5.E-1);
#107=CIRCLE('',#106,5.E-1);
#112=CIRCLE('',#111,5.E-1);
#146=EDGE_CURVE('',#138,#140,#37,.T.);
#148=EDGE_CURVE('',#140,#138,#42,.T.);
#165=EDGE_CURVE('',#135,#136,#66,.T.);
#167=EDGE_CURVE('',#138,#136,#46,.T.);
#170=EDGE_CURVE('',#140,#135,#116,.T.);
#187=EDGE_CURVE('',#127,#130,#51,.T.);
#189=EDGE_CURVE('',#130,#127,#56,.T.);
#193=EDGE_CURVE('',#136,#135,#61,.T.);
#211=EDGE_CURVE('',#132,#128,#80,.T.);
#213=EDGE_CURVE('',#127,#128,#70,.T.);
#216=EDGE_CURVE('',#130,#132,#94,.T.);
#233=EDGE_CURVE('',#128,#132,#75,.T.);
#238=EDGE_CURVE('',#120,#119,#85,.T.);
#240=EDGE_CURVE('',#119,#120,#90,.T.);
#276=EDGE_CURVE('',#120,#122,#98,.T.);
#279=EDGE_CURVE('',#119,#124,#102,.T.);
#281=EDGE_CURVE('',#124,#122,#112,.T.);
#298=EDGE_CURVE('',#122,#124,#107,.T.);
#351=(LENGTH_UNIT()NAMED_UNIT(*)SI_UNIT(.MILLI.,.METRE.));
#353=(NAMED_UNIT(*)PLANE_ANGLE_UNIT()SI_UNIT($,.RADIAN.));
#356=(NAMED_UNIT(*)SI_UNIT($,.STERADIAN.)SOLID_ANGLE_UNIT());
#359=ADVANCED_BREP_SHAPE_REPRESENTATION('',(#350),#358);
#367=PRODUCT_DEFINITION('design','',#366,#363);
#368=PRODUCT_DEFINITION_SHAPE('','SHAPE FOR CAD2406NEU1.',#367);
#369=SHAPE_DEFINITION_REPRESENTATION(#368,#359);
ENDSEC;
END-ISO-10303-21;
