ISO-10303-21;
HEADER;
FILE_DESCRIPTION((''),'2;1');
FILE_NAME('CAD2420_SW0001','2016-09-08T',('cmozuch'),(''),
'PRO/ENGINEER BY PARAMETRIC TECHNOLOGY CORPORATION, 2015440',
'PRO/ENGINEER BY PARAMETRIC TECHNOLOGY CORPORATION, 2015440','');
FILE_SCHEMA(('CONFIG_CONTROL_DESIGN'));
ENDSEC;
DATA;
#33=DIRECTION('',(0.E0,0.E0,-1.E0));
#34=VECTOR('',#33,6.E1);
#35=CARTESIAN_POINT('',(-1.083053708428E1,2.425539652639E1,5.414375709141E1));
#36=LINE('',#35,#34);
#37=DIRECTION('',(0.E0,0.E0,-1.E0));
#38=VECTOR('',#37,6.E1);
#39=CARTESIAN_POINT('',(-8.630537084276E0,2.425539652639E1,5.414375709141E1));
#40=LINE('',#39,#38);
#41=CARTESIAN_POINT('',(-9.730537084276E0,2.425539652639E1,-5.856242908587E0));
#42=DIRECTION('',(0.E0,0.E0,1.E0));
#43=DIRECTION('',(1.E0,0.E0,0.E0));
#44=AXIS2_PLACEMENT_3D('',#41,#42,#43);
#46=CARTESIAN_POINT('',(-9.730537084276E0,2.425539652639E1,-5.856242908587E0));
#47=DIRECTION('',(0.E0,0.E0,1.E0));
#48=DIRECTION('',(-1.E0,0.E0,0.E0));
#49=AXIS2_PLACEMENT_3D('',#46,#47,#48);
#51=CARTESIAN_POINT('',(-9.730537084276E0,2.425539652639E1,-5.856242908587E0));
#52=DIRECTION('',(0.E0,0.E0,-1.E0));
#53=DIRECTION('',(1.E0,0.E0,0.E0));
#54=AXIS2_PLACEMENT_3D('',#51,#52,#53);
#56=CARTESIAN_POINT('',(-9.730537084276E0,2.425539652639E1,-5.856242908587E0));
#57=DIRECTION('',(0.E0,0.E0,-1.E0));
#58=DIRECTION('',(-1.E0,0.E0,0.E0));
#59=AXIS2_PLACEMENT_3D('',#56,#57,#58);
#61=DIRECTION('',(0.E0,0.E0,-1.E0));
#62=VECTOR('',#61,1.5E1);
#63=CARTESIAN_POINT('',(-8.230537084276E0,2.425539652639E1,-5.856242908588E0));
#64=LINE('',#63,#62);
#65=CARTESIAN_POINT('',(-9.730537084276E0,2.425539652639E1,-2.085624290859E1));
#66=DIRECTION('',(0.E0,0.E0,-1.E0));
#67=DIRECTION('',(1.E0,0.E0,0.E0));
#68=AXIS2_PLACEMENT_3D('',#65,#66,#67);
#70=CARTESIAN_POINT('',(-9.730537084276E0,2.425539652639E1,-2.085624290859E1));
#71=DIRECTION('',(0.E0,0.E0,-1.E0));
#72=DIRECTION('',(-1.E0,0.E0,0.E0));
#73=AXIS2_PLACEMENT_3D('',#70,#71,#72);
#75=CARTESIAN_POINT('',(-9.730537084276E0,2.425539652639E1,-2.085624290859E1));
#76=DIRECTION('',(0.E0,0.E0,1.E0));
#77=DIRECTION('',(1.E0,0.E0,0.E0));
#78=AXIS2_PLACEMENT_3D('',#75,#76,#77);
#80=CARTESIAN_POINT('',(-9.730537084276E0,2.425539652639E1,-2.085624290859E1));
#81=DIRECTION('',(0.E0,0.E0,1.E0));
#82=DIRECTION('',(-1.E0,0.E0,0.E0));
#83=AXIS2_PLACEMENT_3D('',#80,#81,#82);
#85=DIRECTION('',(0.E0,0.E0,-1.E0));
#86=VECTOR('',#85,1.5E1);
#87=CARTESIAN_POINT('',(-1.123053708428E1,2.425539652639E1,-5.856242908588E0));
#88=LINE('',#87,#86);
#89=DIRECTION('',(0.E0,0.E0,1.E0));
#90=VECTOR('',#89,1.E-1);
#91=CARTESIAN_POINT('',(-9.230537084276E0,2.425539652639E1,-2.085624290859E1));
#92=LINE('',#91,#90);
#93=DIRECTION('',(0.E0,0.E0,1.E0));
#94=VECTOR('',#93,1.E-1);
#95=CARTESIAN_POINT('',(-1.023053708428E1,2.425539652639E1,-2.085624290859E1));
#96=LINE('',#95,#94);
#97=CARTESIAN_POINT('',(-9.730537084276E0,2.425539652639E1,-2.075624290859E1));
#98=DIRECTION('',(0.E0,0.E0,-1.E0));
#99=DIRECTION('',(1.E0,0.E0,0.E0));
#100=AXIS2_PLACEMENT_3D('',#97,#98,#99);
#102=CARTESIAN_POINT('',(-9.730537084276E0,2.425539652639E1,-2.075624290859E1));
#103=DIRECTION('',(0.E0,0.E0,-1.E0));
#104=DIRECTION('',(-1.E0,0.E0,0.E0));
#105=AXIS2_PLACEMENT_3D('',#102,#103,#104);
#107=CARTESIAN_POINT('',(-9.730537084276E0,2.425539652639E1,5.414375709141E1));
#108=DIRECTION('',(0.E0,0.E0,1.E0));
#109=DIRECTION('',(1.E0,0.E0,0.E0));
#110=AXIS2_PLACEMENT_3D('',#107,#108,#109);
#112=CARTESIAN_POINT('',(-9.730537084276E0,2.425539652639E1,5.414375709141E1));
#113=DIRECTION('',(0.E0,0.E0,1.E0));
#114=DIRECTION('',(-1.E0,0.E0,0.E0));
#115=AXIS2_PLACEMENT_3D('',#112,#113,#114);
#117=CARTESIAN_POINT('',(-1.123053708428E1,2.425539652639E1,-5.856242908587E0));
#118=CARTESIAN_POINT('',(-8.230537084276E0,2.425539652639E1,-5.856242908587E0));
#119=VERTEX_POINT('',#117);
#120=VERTEX_POINT('',#118);
#121=CARTESIAN_POINT('',(-1.083053708428E1,2.425539652639E1,5.414375709141E1));
#122=CARTESIAN_POINT('',(-1.083053708428E1,2.425539652639E1,-5.856242908587E0));
#123=VERTEX_POINT('',#121);
#124=VERTEX_POINT('',#122);
#125=CARTESIAN_POINT('',(-8.630537084276E0,2.425539652639E1,-5.856242908587E0));
#126=VERTEX_POINT('',#125);
#127=CARTESIAN_POINT('',(-8.630537084276E0,2.425539652639E1,5.414375709141E1));
#128=VERTEX_POINT('',#127);
#129=CARTESIAN_POINT('',(-9.230537084276E0,2.425539652639E1,-2.075624290859E1));
#130=CARTESIAN_POINT('',(-1.023053708428E1,2.425539652639E1,-2.075624290859E1));
#131=VERTEX_POINT('',#129);
#132=VERTEX_POINT('',#130);
#133=CARTESIAN_POINT('',(-9.230537084276E0,2.425539652639E1,-2.085624290859E1));
#134=VERTEX_POINT('',#133);
#135=CARTESIAN_POINT('',(-1.023053708428E1,2.425539652639E1,-2.085624290859E1));
#136=VERTEX_POINT('',#135);
#137=CARTESIAN_POINT('',(-1.123053708428E1,2.425539652639E1,-2.085624290859E1));
#138=VERTEX_POINT('',#137);
#139=CARTESIAN_POINT('',(-8.230537084276E0,2.425539652639E1,-2.085624290859E1));
#140=VERTEX_POINT('',#139);
#141=CARTESIAN_POINT('',(-9.730537084276E0,2.425539652639E1,-5.856242908587E0));
#142=DIRECTION('',(0.E0,0.E0,1.E0));
#143=DIRECTION('',(1.E0,0.E0,0.E0));
#144=AXIS2_PLACEMENT_3D('',#141,#142,#143);
#145=CYLINDRICAL_SURFACE('',#144,1.1E0);
#147=ORIENTED_EDGE('',*,*,#146,.F.);
#149=ORIENTED_EDGE('',*,*,#148,.T.);
#151=ORIENTED_EDGE('',*,*,#150,.T.);
#153=ORIENTED_EDGE('',*,*,#152,.T.);
#154=EDGE_LOOP('',(#147,#149,#151,#153));
#155=FACE_OUTER_BOUND('',#154,.F.);
#156=ADVANCED_FACE('',(#155),#145,.T.);
#157=FILL_AREA_STYLE_COLOUR('',#14);
#158=FILL_AREA_STYLE('',(#157));
#159=SURFACE_STYLE_FILL_AREA(#158);
#160=SURFACE_SIDE_STYLE('',(#159));
#161=SURFACE_STYLE_USAGE(.POSITIVE.,#160);
#162=PRESENTATION_STYLE_ASSIGNMENT((#161));
#163=STYLED_ITEM('',(#162),#156);
#164=CARTESIAN_POINT('',(-9.730537084276E0,2.425539652639E1,-5.856242908587E0));
#165=DIRECTION('',(0.E0,0.E0,1.E0));
#166=DIRECTION('',(1.E0,0.E0,0.E0));
#167=AXIS2_PLACEMENT_3D('',#164,#165,#166);
#168=CYLINDRICAL_SURFACE('',#167,1.1E0);
#170=ORIENTED_EDGE('',*,*,#169,.T.);
#171=ORIENTED_EDGE('',*,*,#150,.F.);
#173=ORIENTED_EDGE('',*,*,#172,.T.);
#174=ORIENTED_EDGE('',*,*,#146,.T.);
#175=EDGE_LOOP('',(#170,#171,#173,#174));
#176=FACE_OUTER_BOUND('',#175,.F.);
#177=ADVANCED_FACE('',(#176),#168,.T.);
#178=FILL_AREA_STYLE_COLOUR('',#14);
#179=FILL_AREA_STYLE('',(#178));
#180=SURFACE_STYLE_FILL_AREA(#179);
#181=SURFACE_SIDE_STYLE('',(#180));
#182=SURFACE_STYLE_USAGE(.POSITIVE.,#181);
#183=PRESENTATION_STYLE_ASSIGNMENT((#182));
#184=STYLED_ITEM('',(#183),#177);
#185=CARTESIAN_POINT('',(-8.140393199292E0,2.266525264140E1,-5.856242908587E0));
#186=DIRECTION('',(0.E0,0.E0,1.E0));
#187=DIRECTION('',(0.E0,1.E0,0.E0));
#188=AXIS2_PLACEMENT_3D('',#185,#186,#187);
#189=PLANE('',#188);
#191=ORIENTED_EDGE('',*,*,#190,.F.);
#193=ORIENTED_EDGE('',*,*,#192,.F.);
#194=EDGE_LOOP('',(#191,#193));
#195=FACE_OUTER_BOUND('',#194,.F.);
#196=ORIENTED_EDGE('',*,*,#152,.F.);
#197=ORIENTED_EDGE('',*,*,#169,.F.);
#198=EDGE_LOOP('',(#196,#197));
#199=FACE_BOUND('',#198,.F.);
#200=ADVANCED_FACE('',(#195,#199),#189,.T.);
#201=FILL_AREA_STYLE_COLOUR('',#14);
#202=FILL_AREA_STYLE('',(#201));
#203=SURFACE_STYLE_FILL_AREA(#202);
#204=SURFACE_SIDE_STYLE('',(#203));
#205=SURFACE_STYLE_USAGE(.POSITIVE.,#204);
#206=PRESENTATION_STYLE_ASSIGNMENT((#205));
#207=STYLED_ITEM('',(#206),#200);
#208=CARTESIAN_POINT('',(-9.730537084276E0,2.425539652639E1,-2.085624290859E1));
#209=DIRECTION('',(0.E0,0.E0,1.E0));
#210=DIRECTION('',(1.E0,0.E0,0.E0));
#211=AXIS2_PLACEMENT_3D('',#208,#209,#210);
#212=CYLINDRICAL_SURFACE('',#211,1.5E0);
#214=ORIENTED_EDGE('',*,*,#213,.T.);
#216=ORIENTED_EDGE('',*,*,#215,.F.);
#217=ORIENTED_EDGE('',*,*,#190,.T.);
#219=ORIENTED_EDGE('',*,*,#218,.T.);
#220=EDGE_LOOP('',(#214,#216,#217,#219));
#221=FACE_OUTER_BOUND('',#220,.F.);
#222=ADVANCED_FACE('',(#221),#212,.T.);
#223=FILL_AREA_STYLE_COLOUR('',#14);
#224=FILL_AREA_STYLE('',(#223));
#225=SURFACE_STYLE_FILL_AREA(#224);
#226=SURFACE_SIDE_STYLE('',(#225));
#227=SURFACE_STYLE_USAGE(.POSITIVE.,#226);
#228=PRESENTATION_STYLE_ASSIGNMENT((#227));
#229=STYLED_ITEM('',(#228),#222);
#230=CARTESIAN_POINT('',(-8.140393199292E0,2.266525264140E1,-2.085624290859E1));
#231=DIRECTION('',(0.E0,0.E0,1.E0));
#232=DIRECTION('',(0.E0,1.E0,0.E0));
#233=AXIS2_PLACEMENT_3D('',#230,#231,#232);
#234=PLANE('',#233);
#236=ORIENTED_EDGE('',*,*,#235,.F.);
#237=ORIENTED_EDGE('',*,*,#213,.F.);
#238=EDGE_LOOP('',(#236,#237));
#239=FACE_OUTER_BOUND('',#238,.F.);
#241=ORIENTED_EDGE('',*,*,#240,.F.);
#243=ORIENTED_EDGE('',*,*,#242,.F.);
#244=EDGE_LOOP('',(#241,#243));
#245=FACE_BOUND('',#244,.F.);
#246=ADVANCED_FACE('',(#239,#245),#234,.F.);
#247=FILL_AREA_STYLE_COLOUR('',#14);
#248=FILL_AREA_STYLE('',(#247));
#249=SURFACE_STYLE_FILL_AREA(#248);
#250=SURFACE_SIDE_STYLE('',(#249));
#251=SURFACE_STYLE_USAGE(.POSITIVE.,#250);
#252=PRESENTATION_STYLE_ASSIGNMENT((#251));
#253=STYLED_ITEM('',(#252),#246);
#254=CARTESIAN_POINT('',(-9.730537084276E0,2.425539652639E1,-2.085624290859E1));
#255=DIRECTION('',(0.E0,0.E0,1.E0));
#256=DIRECTION('',(1.E0,0.E0,0.E0));
#257=AXIS2_PLACEMENT_3D('',#254,#255,#256);
#258=CYLINDRICAL_SURFACE('',#257,1.5E0);
#259=ORIENTED_EDGE('',*,*,#218,.F.);
#260=ORIENTED_EDGE('',*,*,#192,.T.);
#261=ORIENTED_EDGE('',*,*,#215,.T.);
#262=ORIENTED_EDGE('',*,*,#235,.T.);
#263=EDGE_LOOP('',(#259,#260,#261,#262));
#264=FACE_OUTER_BOUND('',#263,.F.);
#265=ADVANCED_FACE('',(#264),#258,.T.);
#266=FILL_AREA_STYLE_COLOUR('',#14);
#267=FILL_AREA_STYLE('',(#266));
#268=SURFACE_STYLE_FILL_AREA(#267);
#269=SURFACE_SIDE_STYLE('',(#268));
#270=SURFACE_STYLE_USAGE(.POSITIVE.,#269);
#271=PRESENTATION_STYLE_ASSIGNMENT((#270));
#272=STYLED_ITEM('',(#271),#265);
#273=CARTESIAN_POINT('',(-9.730537084276E0,2.425539652639E1,-2.075624290859E1));
#274=DIRECTION('',(0.E0,0.E0,-1.E0));
#275=DIRECTION('',(-1.E0,0.E0,0.E0));
#276=AXIS2_PLACEMENT_3D('',#273,#274,#275);
#277=CYLINDRICAL_SURFACE('',#276,5.E-1);
#279=ORIENTED_EDGE('',*,*,#278,.F.);
#280=ORIENTED_EDGE('',*,*,#240,.T.);
#282=ORIENTED_EDGE('',*,*,#281,.T.);
#284=ORIENTED_EDGE('',*,*,#283,.T.);
#285=EDGE_LOOP('',(#279,#280,#282,#284));
#286=FACE_OUTER_BOUND('',#285,.F.);
#287=ADVANCED_FACE('',(#286),#277,.F.);
#288=FILL_AREA_STYLE_COLOUR('',#14);
#289=FILL_AREA_STYLE('',(#288));
#290=SURFACE_STYLE_FILL_AREA(#289);
#291=SURFACE_SIDE_STYLE('',(#290));
#292=SURFACE_STYLE_USAGE(.POSITIVE.,#291);
#293=PRESENTATION_STYLE_ASSIGNMENT((#292));
#294=STYLED_ITEM('',(#293),#287);
#295=CARTESIAN_POINT('',(-9.730537084276E0,2.425539652639E1,-2.075624290859E1));
#296=DIRECTION('',(0.E0,0.E0,-1.E0));
#297=DIRECTION('',(-1.E0,0.E0,0.E0));
#298=AXIS2_PLACEMENT_3D('',#295,#296,#297);
#299=CYLINDRICAL_SURFACE('',#298,5.E-1);
#301=ORIENTED_EDGE('',*,*,#300,.T.);
#302=ORIENTED_EDGE('',*,*,#281,.F.);
#303=ORIENTED_EDGE('',*,*,#242,.T.);
#304=ORIENTED_EDGE('',*,*,#278,.T.);
#305=EDGE_LOOP('',(#301,#302,#303,#304));
#306=FACE_OUTER_BOUND('',#305,.F.);
#307=ADVANCED_FACE('',(#306),#299,.F.);
#308=FILL_AREA_STYLE_COLOUR('',#14);
#309=FILL_AREA_STYLE('',(#308));
#310=SURFACE_STYLE_FILL_AREA(#309);
#311=SURFACE_SIDE_STYLE('',(#310));
#312=SURFACE_STYLE_USAGE(.POSITIVE.,#311);
#313=PRESENTATION_STYLE_ASSIGNMENT((#312));
#314=STYLED_ITEM('',(#313),#307);
#315=CARTESIAN_POINT('',(-9.140393199292E0,2.484554041137E1,-2.075624290859E1));
#316=DIRECTION('',(0.E0,0.E0,-1.E0));
#317=DIRECTION('',(0.E0,-1.E0,0.E0));
#318=AXIS2_PLACEMENT_3D('',#315,#316,#317);
#319=PLANE('',#318);
#320=ORIENTED_EDGE('',*,*,#300,.F.);
#321=ORIENTED_EDGE('',*,*,#283,.F.);
#322=EDGE_LOOP('',(#320,#321));
#323=FACE_OUTER_BOUND('',#322,.F.);
#324=ADVANCED_FACE('',(#323),#319,.T.);
#325=FILL_AREA_STYLE_COLOUR('',#14);
#326=FILL_AREA_STYLE('',(#325));
#327=SURFACE_STYLE_FILL_AREA(#326);
#328=SURFACE_SIDE_STYLE('',(#327));
#329=SURFACE_STYLE_USAGE(.POSITIVE.,#328);
#330=PRESENTATION_STYLE_ASSIGNMENT((#329));
#331=STYLED_ITEM('',(#330),#324);
#332=CARTESIAN_POINT('',(-8.538649677878E0,2.306525264140E1,5.414375709141E1));
#333=DIRECTION('',(0.E0,0.E0,1.E0));
#334=DIRECTION('',(0.E0,1.E0,0.E0));
#335=AXIS2_PLACEMENT_3D('',#332,#333,#334);
#336=PLANE('',#335);
#337=ORIENTED_EDGE('',*,*,#172,.F.);
#338=ORIENTED_EDGE('',*,*,#148,.F.);
#339=EDGE_LOOP('',(#337,#338));
#340=FACE_OUTER_BOUND('',#339,.F.);
#341=ADVANCED_FACE('',(#340),#336,.T.);
#342=FILL_AREA_STYLE_COLOUR('',#14);
#343=FILL_AREA_STYLE('',(#342));
#344=SURFACE_STYLE_FILL_AREA(#343);
#345=SURFACE_SIDE_STYLE('',(#344));
#346=SURFACE_STYLE_USAGE(.POSITIVE.,#345);
#347=PRESENTATION_STYLE_ASSIGNMENT((#346));
#348=STYLED_ITEM('',(#347),#341);
#349=CLOSED_SHELL('',(#156,#177,#200,#222,#246,#265,#287,#307,#324,#341));
#350=MANIFOLD_SOLID_BREP('',#349);
#352=DIMENSIONAL_EXPONENTS(0.E0,0.E0,0.E0,0.E0,0.E0,0.E0,0.E0);
#354=PLANE_ANGLE_MEASURE_WITH_UNIT(PLANE_ANGLE_MEASURE(1.745329251994E-2),#353);
#355=(CONVERSION_BASED_UNIT('DEGREE',#354)NAMED_UNIT(*)PLANE_ANGLE_UNIT());
#357=UNCERTAINTY_MEASURE_WITH_UNIT(LENGTH_MEASURE(7.511689935713E-3),#351,
'closure',
'Maximum model space distance between geometric entities at asserted connectivities');
#358=(GEOMETRIC_REPRESENTATION_CONTEXT(3)GLOBAL_UNCERTAINTY_ASSIGNED_CONTEXT((
#357))GLOBAL_UNIT_ASSIGNED_CONTEXT((#351,#355,#356))REPRESENTATION_CONTEXT
('ID1','3'));
#360=MECHANICAL_DESIGN_GEOMETRIC_PRESENTATION_REPRESENTATION('',(#163,#184,#207,
#229,#253,#272,#294,#314,#331,#348),#358);
#361=APPLICATION_CONTEXT(
'CONFIGURATION CONTROLLED 3D DESIGNS OF MECHANICAL PARTS AND ASSEMBLIES');
#362=APPLICATION_PROTOCOL_DEFINITION('international standard',
'config_control_design',1994,#361);
#363=DESIGN_CONTEXT('',#361,'design');
#364=MECHANICAL_CONTEXT('',#361,'mechanical');
#365=PRODUCT('CAD2420_SW0001','CAD2420_SW0001','NOT SPECIFIED',(#364));
#366=PRODUCT_DEFINITION_FORMATION_WITH_SPECIFIED_SOURCE('1','LAST_VERSION',#365,
.MADE.);
#370=PRODUCT_CATEGORY('part','');
#371=PRODUCT_RELATED_PRODUCT_CATEGORY('detail','',(#365));
#372=PRODUCT_CATEGORY_RELATIONSHIP('','',#370,#371);
#373=SECURITY_CLASSIFICATION_LEVEL('unclassified');
#374=SECURITY_CLASSIFICATION('','',#373);
#375=CC_DESIGN_SECURITY_CLASSIFICATION(#374,(#366));
#376=APPROVAL_STATUS('approved');
#377=APPROVAL(#376,'');
#378=CC_DESIGN_APPROVAL(#377,(#374,#366,#367));
#379=CALENDAR_DATE(116,8,9);
#380=COORDINATED_UNIVERSAL_TIME_OFFSET(2,0,.AHEAD.);
#381=LOCAL_TIME(11,51,3.6E1,#380);
#382=DATE_AND_TIME(#379,#381);
#383=APPROVAL_DATE_TIME(#382,#377);
#384=DATE_TIME_ROLE('creation_date');
#385=CC_DESIGN_DATE_AND_TIME_ASSIGNMENT(#382,#384,(#367));
#386=DATE_TIME_ROLE('classification_date');
#387=CC_DESIGN_DATE_AND_TIME_ASSIGNMENT(#382,#386,(#374));
#388=PERSON('UNSPECIFIED','UNSPECIFIED',$,$,$,$);
#389=ORGANIZATION('UNSPECIFIED','UNSPECIFIED','UNSPECIFIED');
#390=PERSON_AND_ORGANIZATION(#388,#389);
#391=APPROVAL_ROLE('approver');
#392=APPROVAL_PERSON_ORGANIZATION(#390,#377,#391);
#393=PERSON_AND_ORGANIZATION_ROLE('creator');
#394=CC_DESIGN_PERSON_AND_ORGANIZATION_ASSIGNMENT(#390,#393,(#366,#367));
#395=PERSON_AND_ORGANIZATION_ROLE('design_supplier');
#396=CC_DESIGN_PERSON_AND_ORGANIZATION_ASSIGNMENT(#390,#395,(#366));
#397=PERSON_AND_ORGANIZATION_ROLE('classification_officer');
#398=CC_DESIGN_PERSON_AND_ORGANIZATION_ASSIGNMENT(#390,#397,(#374));
#399=PERSON_AND_ORGANIZATION_ROLE('design_owner');
#400=CC_DESIGN_PERSON_AND_ORGANIZATION_ASSIGNMENT(#390,#399,(#365));
#1=COLOUR_RGB('',0.E0,0.E0,1.96E-1);
#2=COLOUR_RGB('',0.E0,0.E0,3.14E-1);
#3=COLOUR_RGB('',0.E0,1.96E-1,0.E0);
#4=COLOUR_RGB('',0.E0,3.14E-1,0.E0);
#5=COLOUR_RGB('',7.8E-2,7.8E-2,7.8E-2);
#6=COLOUR_RGB('',1.18E-1,1.18E-1,4.71E-1);
#7=COLOUR_RGB('',1.57E-1,1.57E-1,1.57E-1);
#8=COLOUR_RGB('',1.96E-1,0.E0,0.E0);
#9=COLOUR_RGB('',1.96E-1,0.E0,1.96E-1);
#10=COLOUR_RGB('',1.96E-1,5.88E-1,1.96E-1);
#11=COLOUR_RGB('',2.35E-1,2.35E-1,2.35E-1);
#12=COLOUR_RGB('',2.35E-1,2.35E-1,5.88E-1);
#13=COLOUR_RGB('',3.14E-1,3.14E-1,3.14E-1);
#14=COLOUR_RGB('',3.27543E-1,1.E0,6.33116E-1);
#15=COLOUR_RGB('',3.92E-1,0.E0,0.E0);
#16=COLOUR_RGB('',3.92E-1,0.E0,3.92E-1);
#17=COLOUR_RGB('',3.92E-1,3.92E-1,3.92E-1);
#18=COLOUR_RGB('',3.92E-1,3.92E-1,8.63E-1);
#19=COLOUR_RGB('',3.92E-1,5.88E-1,3.92E-1);
#20=COLOUR_RGB('',3.92E-1,5.88E-1,8.63E-1);
#21=COLOUR_RGB('',5.01961E-1,1.E0,5.01961E-1);
#22=COLOUR_RGB('',5.5E-1,5.6E-1,7.E-1);
#23=COLOUR_RGB('',5.88E-1,5.88E-1,5.88E-1);
#24=COLOUR_RGB('',5.88E-1,7.84E-1,5.88E-1);
#25=COLOUR_RGB('',6.2E-1,3.1E-1,6.5E-1);
#26=COLOUR_RGB('',6.8E-1,8.5E-1,1.E0);
#27=COLOUR_RGB('',6.952E-1,7.426E-1,7.9E-1);
#28=COLOUR_RGB('',9.8E-1,3.92E-1,0.E0);
#29=COLOUR_RGB('',9.8E-1,5.88E-1,0.E0);
#30=COLOUR_RGB('',9.8E-1,7.84E-1,0.E0);
#31=COLOUR_RGB('',1.E0,3.7E-1,3.8E-1);
#32=DRAUGHTING_PRE_DEFINED_COLOUR('white');
#45=CIRCLE('',#44,1.5E0);
#50=CIRCLE('',#49,1.5E0);
#55=CIRCLE('',#54,1.1E0);
#60=CIRCLE('',#59,1.1E0);
#69=CIRCLE('',#68,1.5E0);
#74=CIRCLE('',#73,1.5E0);
#79=CIRCLE('',#78,5.E-1);
#84=CIRCLE('',#83,5.E-1);
#101=CIRCLE('',#100,5.E-1);
#106=CIRCLE('',#105,5.E-1);
#111=CIRCLE('',#110,1.1E0);
#116=CIRCLE('',#115,1.1E0);
#146=EDGE_CURVE('',#123,#124,#36,.T.);
#148=EDGE_CURVE('',#123,#128,#116,.T.);
#150=EDGE_CURVE('',#128,#126,#40,.T.);
#152=EDGE_CURVE('',#126,#124,#55,.T.);
#169=EDGE_CURVE('',#124,#126,#60,.T.);
#172=EDGE_CURVE('',#128,#123,#111,.T.);
#190=EDGE_CURVE('',#120,#119,#45,.T.);
#192=EDGE_CURVE('',#119,#120,#50,.T.);
#213=EDGE_CURVE('',#138,#140,#74,.T.);
#215=EDGE_CURVE('',#120,#140,#64,.T.);
#218=EDGE_CURVE('',#119,#138,#88,.T.);
#235=EDGE_CURVE('',#140,#138,#69,.T.);
#240=EDGE_CURVE('',#134,#136,#79,.T.);
#242=EDGE_CURVE('',#136,#134,#84,.T.);
#278=EDGE_CURVE('',#134,#131,#92,.T.);
#281=EDGE_CURVE('',#136,#132,#96,.T.);
#283=EDGE_CURVE('',#132,#131,#106,.T.);
#300=EDGE_CURVE('',#131,#132,#101,.T.);
#351=(LENGTH_UNIT()NAMED_UNIT(*)SI_UNIT(.MILLI.,.METRE.));
#353=(NAMED_UNIT(*)PLANE_ANGLE_UNIT()SI_UNIT($,.RADIAN.));
#356=(NAMED_UNIT(*)SI_UNIT($,.STERADIAN.)SOLID_ANGLE_UNIT());
#359=ADVANCED_BREP_SHAPE_REPRESENTATION('',(#350),#358);
#367=PRODUCT_DEFINITION('design','',#366,#363);
#368=PRODUCT_DEFINITION_SHAPE('','SHAPE FOR CAD2420_SW0001.',#367);
#369=SHAPE_DEFINITION_REPRESENTATION(#368,#359);
ENDSEC;
END-ISO-10303-21;
