ISO-10303-21;
HEADER;
FILE_DESCRIPTION((''),'2;1');
FILE_NAME('CAD2427_SW0001','2016-09-05T',('cmozuch'),(''),
'PRO/ENGINEER BY PARAMETRIC TECHNOLOGY CORPORATION, 2015440',
'PRO/ENGINEER BY PARAMETRIC TECHNOLOGY CORPORATION, 2015440','');
FILE_SCHEMA(('CONFIG_CONTROL_DESIGN'));
ENDSEC;
DATA;
#37=CARTESIAN_POINT('',(0.E0,-1.E1,0.E0));
#38=DIRECTION('',(0.E0,1.E0,0.E0));
#39=DIRECTION('',(0.E0,0.E0,-1.E0));
#40=AXIS2_PLACEMENT_3D('',#37,#38,#39);
#42=CARTESIAN_POINT('',(0.E0,-1.E1,0.E0));
#43=DIRECTION('',(0.E0,1.E0,0.E0));
#44=DIRECTION('',(0.E0,0.E0,1.E0));
#45=AXIS2_PLACEMENT_3D('',#42,#43,#44);
#47=CARTESIAN_POINT('',(0.E0,-1.E1,0.E0));
#48=DIRECTION('',(0.E0,-1.E0,0.E0));
#49=DIRECTION('',(0.E0,0.E0,-1.E0));
#50=AXIS2_PLACEMENT_3D('',#47,#48,#49);
#52=CARTESIAN_POINT('',(0.E0,-1.E1,0.E0));
#53=DIRECTION('',(0.E0,-1.E0,0.E0));
#54=DIRECTION('',(0.E0,0.E0,1.E0));
#55=AXIS2_PLACEMENT_3D('',#52,#53,#54);
#57=DIRECTION('',(0.E0,-1.E0,0.E0));
#58=VECTOR('',#57,1.E1);
#59=CARTESIAN_POINT('',(0.E0,0.E0,7.5E-1));
#60=LINE('',#59,#58);
#61=DIRECTION('',(0.E0,-1.E0,0.E0));
#62=VECTOR('',#61,1.E1);
#63=CARTESIAN_POINT('',(0.E0,0.E0,-7.5E-1));
#64=LINE('',#63,#62);
#65=CARTESIAN_POINT('',(0.E0,0.E0,0.E0));
#66=DIRECTION('',(0.E0,-1.E0,0.E0));
#67=DIRECTION('',(0.E0,0.E0,1.E0));
#68=AXIS2_PLACEMENT_3D('',#65,#66,#67);
#70=CARTESIAN_POINT('',(0.E0,0.E0,0.E0));
#71=DIRECTION('',(0.E0,-1.E0,0.E0));
#72=DIRECTION('',(0.E0,0.E0,-1.E0));
#73=AXIS2_PLACEMENT_3D('',#70,#71,#72);
#75=CARTESIAN_POINT('',(0.E0,0.E0,0.E0));
#76=DIRECTION('',(0.E0,1.E0,0.E0));
#77=DIRECTION('',(0.E0,0.E0,-1.E0));
#78=AXIS2_PLACEMENT_3D('',#75,#76,#77);
#80=CARTESIAN_POINT('',(0.E0,0.E0,0.E0));
#81=DIRECTION('',(0.E0,1.E0,0.E0));
#82=DIRECTION('',(0.E0,0.E0,1.E0));
#83=AXIS2_PLACEMENT_3D('',#80,#81,#82);
#85=DIRECTION('',(0.E0,1.E0,0.E0));
#86=VECTOR('',#85,1.E-1);
#87=CARTESIAN_POINT('',(0.E0,-1.E-1,1.25E-1));
#88=LINE('',#87,#86);
#89=DIRECTION('',(0.E0,1.E0,0.E0));
#90=VECTOR('',#89,1.E-1);
#91=CARTESIAN_POINT('',(0.E0,-1.E-1,-1.25E-1));
#92=LINE('',#91,#90);
#93=CARTESIAN_POINT('',(0.E0,-1.E-1,0.E0));
#94=DIRECTION('',(0.E0,-1.E0,0.E0));
#95=DIRECTION('',(0.E0,0.E0,1.E0));
#96=AXIS2_PLACEMENT_3D('',#93,#94,#95);
#98=CARTESIAN_POINT('',(0.E0,-1.E-1,0.E0));
#99=DIRECTION('',(0.E0,-1.E0,0.E0));
#100=DIRECTION('',(0.E0,0.E0,-1.E0));
#101=AXIS2_PLACEMENT_3D('',#98,#99,#100);
#103=CARTESIAN_POINT('',(0.E0,-7.E1,0.E0));
#104=DIRECTION('',(0.E0,-1.E0,0.E0));
#105=DIRECTION('',(0.E0,0.E0,-1.E0));
#106=AXIS2_PLACEMENT_3D('',#103,#104,#105);
#108=DIRECTION('',(0.E0,-1.E0,0.E0));
#109=VECTOR('',#108,6.E1);
#110=CARTESIAN_POINT('',(0.E0,-1.E1,-5.E-1));
#111=LINE('',#110,#109);
#112=CARTESIAN_POINT('',(0.E0,-7.E1,0.E0));
#113=DIRECTION('',(0.E0,-1.E0,0.E0));
#114=DIRECTION('',(-1.E0,0.E0,0.E0));
#115=AXIS2_PLACEMENT_3D('',#112,#113,#114);
#117=CARTESIAN_POINT('',(0.E0,-7.E1,0.E0));
#118=DIRECTION('',(0.E0,-1.E0,0.E0));
#119=DIRECTION('',(1.E0,0.E0,0.E0));
#120=AXIS2_PLACEMENT_3D('',#117,#118,#119);
#122=DIRECTION('',(2.085802646065E-7,-1.E0,-9.967578781034E-13));
#123=VECTOR('',#122,1.974999420704E1);
#124=CARTESIAN_POINT('',(-1.1E0,-7.E1,0.E0));
#125=LINE('',#124,#123);
#126=CARTESIAN_POINT('',(0.E0,-8.974998184859E1,0.E0));
#127=DIRECTION('',(0.E0,1.E0,0.E0));
#128=DIRECTION('',(1.E0,0.E0,1.559362605E-11));
#129=AXIS2_PLACEMENT_3D('',#126,#127,#128);
#131=CARTESIAN_POINT('',(0.E0,-9.E1,0.E0));
#132=DIRECTION('',(0.E0,-1.E0,0.E0));
#133=DIRECTION('',(-1.E0,0.E0,0.E0));
#134=AXIS2_PLACEMENT_3D('',#131,#132,#133);
#136=DIRECTION('',(7.071095920353E-1,7.071039703266E-1,2.257083160362E-11));
#137=VECTOR('',#136,3.535569754378E-1);
#138=CARTESIAN_POINT('',(8.499923518779E-1,-8.999999574811E1,
2.028284762764E-11));
#139=LINE('',#138,#137);
#140=CARTESIAN_POINT('',(0.E0,-8.974998184859E1,0.E0));
#141=DIRECTION('',(0.E0,1.E0,0.E0));
#142=DIRECTION('',(-1.E0,0.E0,0.E0));
#143=AXIS2_PLACEMENT_3D('',#140,#141,#142);
#145=CARTESIAN_POINT('',(0.E0,-9.E1,0.E0));
#146=DIRECTION('',(0.E0,-1.E0,0.E0));
#147=DIRECTION('',(1.E0,0.E0,0.E0));
#148=AXIS2_PLACEMENT_3D('',#145,#146,#147);
#150=DIRECTION('',(-7.071095920353E-1,7.071039703266E-1,1.687060268966E-12));
#151=VECTOR('',#150,3.535569754378E-1);
#152=CARTESIAN_POINT('',(-8.499923518779E-1,-8.999999574811E1,
-2.028234433106E-11));
#153=LINE('',#152,#151);
#154=DIRECTION('',(-2.085802646065E-7,-1.E0,8.520304682688E-13));
#155=VECTOR('',#154,1.974999420704E1);
#156=CARTESIAN_POINT('',(1.1E0,-7.E1,1.143532577E-11));
#157=LINE('',#156,#155);
#158=CARTESIAN_POINT('',(0.E0,-7.E1,0.E0));
#159=DIRECTION('',(0.E0,-1.E0,0.E0));
#160=DIRECTION('',(0.E0,0.E0,1.E0));
#161=AXIS2_PLACEMENT_3D('',#158,#159,#160);
#163=DIRECTION('',(0.E0,-1.E0,0.E0));
#164=VECTOR('',#163,6.E1);
#165=CARTESIAN_POINT('',(0.E0,-1.E1,5.E-1));
#166=LINE('',#165,#164);
#167=CARTESIAN_POINT('',(0.E0,-1.E1,-7.5E-1));
#168=CARTESIAN_POINT('',(0.E0,-1.E1,7.5E-1));
#169=VERTEX_POINT('',#167);
#170=VERTEX_POINT('',#168);
#171=CARTESIAN_POINT('',(0.E0,-1.E1,-5.E-1));
#172=CARTESIAN_POINT('',(0.E0,-1.E1,5.E-1));
#173=VERTEX_POINT('',#171);
#174=VERTEX_POINT('',#172);
#175=CARTESIAN_POINT('',(0.E0,0.E0,-7.5E-1));
#176=VERTEX_POINT('',#175);
#177=CARTESIAN_POINT('',(0.E0,0.E0,7.5E-1));
#178=VERTEX_POINT('',#177);
#179=CARTESIAN_POINT('',(0.E0,0.E0,-1.25E-1));
#180=CARTESIAN_POINT('',(0.E0,0.E0,1.25E-1));
#181=VERTEX_POINT('',#179);
#182=VERTEX_POINT('',#180);
#183=CARTESIAN_POINT('',(0.E0,-1.E-1,-1.25E-1));
#184=VERTEX_POINT('',#183);
#185=CARTESIAN_POINT('',(0.E0,-1.E-1,1.25E-1));
#186=VERTEX_POINT('',#185);
#187=CARTESIAN_POINT('',(-8.499923518779E-1,-8.999999574811E1,
-2.028234433106E-11));
#188=CARTESIAN_POINT('',(-1.099995880541E0,-8.974999420704E1,
-1.968587240498E-11));
#189=VERTEX_POINT('',#187);
#190=VERTEX_POINT('',#188);
#191=CARTESIAN_POINT('',(8.499923518779E-1,-8.999999574811E1,
2.028284762764E-11));
#192=CARTESIAN_POINT('',(1.099995880541E0,-8.974999420704E1,
2.826292258253E-11));
#193=VERTEX_POINT('',#191);
#194=VERTEX_POINT('',#192);
#195=CARTESIAN_POINT('',(1.1E0,-7.E1,1.143532577E-11));
#196=VERTEX_POINT('',#195);
#197=CARTESIAN_POINT('',(-1.1E0,-7.E1,0.E0));
#198=VERTEX_POINT('',#197);
#199=CARTESIAN_POINT('',(0.E0,-7.E1,-5.E-1));
#200=CARTESIAN_POINT('',(0.E0,-7.E1,5.E-1));
#201=VERTEX_POINT('',#199);
#202=VERTEX_POINT('',#200);
#203=CARTESIAN_POINT('',(0.E0,-1.E1,0.E0));
#204=DIRECTION('',(0.E0,-1.E0,0.E0));
#205=DIRECTION('',(0.E0,0.E0,1.E0));
#206=AXIS2_PLACEMENT_3D('',#203,#204,#205);
#207=PLANE('',#206);
#209=ORIENTED_EDGE('',*,*,#208,.T.);
#211=ORIENTED_EDGE('',*,*,#210,.T.);
#212=EDGE_LOOP('',(#209,#211));
#213=FACE_OUTER_BOUND('',#212,.F.);
#215=ORIENTED_EDGE('',*,*,#214,.T.);
#217=ORIENTED_EDGE('',*,*,#216,.T.);
#218=EDGE_LOOP('',(#215,#217));
#219=FACE_BOUND('',#218,.F.);
#220=ADVANCED_FACE('',(#213,#219),#207,.T.);
#221=FILL_AREA_STYLE_COLOUR('',#16);
#222=FILL_AREA_STYLE('',(#221));
#223=SURFACE_STYLE_FILL_AREA(#222);
#224=SURFACE_SIDE_STYLE('',(#223));
#225=SURFACE_STYLE_USAGE(.POSITIVE.,#224);
#226=PRESENTATION_STYLE_ASSIGNMENT((#225));
#227=STYLED_ITEM('',(#226),#220);
#228=CARTESIAN_POINT('',(0.E0,5.E-1,0.E0));
#229=DIRECTION('',(0.E0,-1.E0,0.E0));
#230=DIRECTION('',(0.E0,0.E0,1.E0));
#231=AXIS2_PLACEMENT_3D('',#228,#229,#230);
#232=CYLINDRICAL_SURFACE('',#231,7.5E-1);
#234=ORIENTED_EDGE('',*,*,#233,.F.);
#236=ORIENTED_EDGE('',*,*,#235,.F.);
#238=ORIENTED_EDGE('',*,*,#237,.T.);
#239=ORIENTED_EDGE('',*,*,#208,.F.);
#240=EDGE_LOOP('',(#234,#236,#238,#239));
#241=FACE_OUTER_BOUND('',#240,.F.);
#242=ADVANCED_FACE('',(#241),#232,.T.);
#243=FILL_AREA_STYLE_COLOUR('',#15);
#244=FILL_AREA_STYLE('',(#243));
#245=SURFACE_STYLE_FILL_AREA(#244);
#246=SURFACE_SIDE_STYLE('',(#245));
#247=SURFACE_STYLE_USAGE(.POSITIVE.,#246);
#248=PRESENTATION_STYLE_ASSIGNMENT((#247));
#249=STYLED_ITEM('',(#248),#242);
#250=CARTESIAN_POINT('',(0.E0,5.E-1,0.E0));
#251=DIRECTION('',(0.E0,-1.E0,0.E0));
#252=DIRECTION('',(0.E0,0.E0,1.E0));
#253=AXIS2_PLACEMENT_3D('',#250,#251,#252);
#254=CYLINDRICAL_SURFACE('',#253,7.5E-1);
#255=ORIENTED_EDGE('',*,*,#233,.T.);
#256=ORIENTED_EDGE('',*,*,#210,.F.);
#257=ORIENTED_EDGE('',*,*,#237,.F.);
#259=ORIENTED_EDGE('',*,*,#258,.F.);
#260=EDGE_LOOP('',(#255,#256,#257,#259));
#261=FACE_OUTER_BOUND('',#260,.F.);
#262=ADVANCED_FACE('',(#261),#254,.T.);
#263=FILL_AREA_STYLE_COLOUR('',#15);
#264=FILL_AREA_STYLE('',(#263));
#265=SURFACE_STYLE_FILL_AREA(#264);
#266=SURFACE_SIDE_STYLE('',(#265));
#267=SURFACE_STYLE_USAGE(.POSITIVE.,#266);
#268=PRESENTATION_STYLE_ASSIGNMENT((#267));
#269=STYLED_ITEM('',(#268),#262);
#270=CARTESIAN_POINT('',(0.E0,0.E0,0.E0));
#271=DIRECTION('',(0.E0,-1.E0,0.E0));
#272=DIRECTION('',(0.E0,0.E0,1.E0));
#273=AXIS2_PLACEMENT_3D('',#270,#271,#272);
#274=PLANE('',#273);
#275=ORIENTED_EDGE('',*,*,#235,.T.);
#276=ORIENTED_EDGE('',*,*,#258,.T.);
#277=EDGE_LOOP('',(#275,#276));
#278=FACE_OUTER_BOUND('',#277,.F.);
#280=ORIENTED_EDGE('',*,*,#279,.T.);
#282=ORIENTED_EDGE('',*,*,#281,.T.);
#283=EDGE_LOOP('',(#280,#282));
#284=FACE_BOUND('',#283,.F.);
#285=ADVANCED_FACE('',(#278,#284),#274,.F.);
#286=FILL_AREA_STYLE_COLOUR('',#14);
#287=FILL_AREA_STYLE('',(#286));
#288=SURFACE_STYLE_FILL_AREA(#287);
#289=SURFACE_SIDE_STYLE('',(#288));
#290=SURFACE_STYLE_USAGE(.POSITIVE.,#289);
#291=PRESENTATION_STYLE_ASSIGNMENT((#290));
#292=STYLED_ITEM('',(#291),#285);
#293=CARTESIAN_POINT('',(0.E0,0.E0,0.E0));
#294=DIRECTION('',(0.E0,1.E0,0.E0));
#295=DIRECTION('',(0.E0,0.E0,-1.E0));
#296=AXIS2_PLACEMENT_3D('',#293,#294,#295);
#297=CYLINDRICAL_SURFACE('',#296,1.25E-1);
#298=ORIENTED_EDGE('',*,*,#279,.F.);
#300=ORIENTED_EDGE('',*,*,#299,.F.);
#302=ORIENTED_EDGE('',*,*,#301,.F.);
#304=ORIENTED_EDGE('',*,*,#303,.T.);
#305=EDGE_LOOP('',(#298,#300,#302,#304));
#306=FACE_OUTER_BOUND('',#305,.F.);
#307=ADVANCED_FACE('',(#306),#297,.F.);
#308=FILL_AREA_STYLE_COLOUR('',#14);
#309=FILL_AREA_STYLE('',(#308));
#310=SURFACE_STYLE_FILL_AREA(#309);
#311=SURFACE_SIDE_STYLE('',(#310));
#312=SURFACE_STYLE_USAGE(.POSITIVE.,#311);
#313=PRESENTATION_STYLE_ASSIGNMENT((#312));
#314=STYLED_ITEM('',(#313),#307);
#315=CARTESIAN_POINT('',(0.E0,0.E0,0.E0));
#316=DIRECTION('',(0.E0,1.E0,0.E0));
#317=DIRECTION('',(0.E0,0.E0,-1.E0));
#318=AXIS2_PLACEMENT_3D('',#315,#316,#317);
#319=CYLINDRICAL_SURFACE('',#318,1.25E-1);
#320=ORIENTED_EDGE('',*,*,#281,.F.);
#321=ORIENTED_EDGE('',*,*,#303,.F.);
#323=ORIENTED_EDGE('',*,*,#322,.F.);
#324=ORIENTED_EDGE('',*,*,#299,.T.);
#325=EDGE_LOOP('',(#320,#321,#323,#324));
#326=FACE_OUTER_BOUND('',#325,.F.);
#327=ADVANCED_FACE('',(#326),#319,.F.);
#328=FILL_AREA_STYLE_COLOUR('',#14);
#329=FILL_AREA_STYLE('',(#328));
#330=SURFACE_STYLE_FILL_AREA(#329);
#331=SURFACE_SIDE_STYLE('',(#330));
#332=SURFACE_STYLE_USAGE(.POSITIVE.,#331);
#333=PRESENTATION_STYLE_ASSIGNMENT((#332));
#334=STYLED_ITEM('',(#333),#327);
#335=CARTESIAN_POINT('',(0.E0,-1.E-1,0.E0));
#336=DIRECTION('',(0.E0,1.E0,0.E0));
#337=DIRECTION('',(0.E0,0.E0,-1.E0));
#338=AXIS2_PLACEMENT_3D('',#335,#336,#337);
#339=PLANE('',#338);
#340=ORIENTED_EDGE('',*,*,#301,.T.);
#341=ORIENTED_EDGE('',*,*,#322,.T.);
#342=EDGE_LOOP('',(#340,#341));
#343=FACE_OUTER_BOUND('',#342,.F.);
#344=ADVANCED_FACE('',(#343),#339,.T.);
#345=FILL_AREA_STYLE_COLOUR('',#14);
#346=FILL_AREA_STYLE('',(#345));
#347=SURFACE_STYLE_FILL_AREA(#346);
#348=SURFACE_SIDE_STYLE('',(#347));
#349=SURFACE_STYLE_USAGE(.POSITIVE.,#348);
#350=PRESENTATION_STYLE_ASSIGNMENT((#349));
#351=STYLED_ITEM('',(#350),#344);
#352=CARTESIAN_POINT('',(0.E0,-7.E0,0.E0));
#353=DIRECTION('',(0.E0,-1.E0,0.E0));
#354=DIRECTION('',(0.E0,0.E0,1.E0));
#355=AXIS2_PLACEMENT_3D('',#352,#353,#354);
#356=CYLINDRICAL_SURFACE('',#355,5.E-1);
#358=ORIENTED_EDGE('',*,*,#357,.T.);
#360=ORIENTED_EDGE('',*,*,#359,.F.);
#361=ORIENTED_EDGE('',*,*,#214,.F.);
#363=ORIENTED_EDGE('',*,*,#362,.T.);
#364=EDGE_LOOP('',(#358,#360,#361,#363));
#365=FACE_OUTER_BOUND('',#364,.F.);
#366=ADVANCED_FACE('',(#365),#356,.T.);
#367=FILL_AREA_STYLE_COLOUR('',#15);
#368=FILL_AREA_STYLE('',(#367));
#369=SURFACE_STYLE_FILL_AREA(#368);
#370=SURFACE_SIDE_STYLE('',(#369));
#371=SURFACE_STYLE_USAGE(.POSITIVE.,#370);
#372=PRESENTATION_STYLE_ASSIGNMENT((#371));
#373=STYLED_ITEM('',(#372),#366);
#374=CARTESIAN_POINT('',(0.E0,-7.E1,0.E0));
#375=DIRECTION('',(0.E0,-1.E0,0.E0));
#376=DIRECTION('',(-1.E0,0.E0,0.E0));
#377=AXIS2_PLACEMENT_3D('',#374,#375,#376);
#378=PLANE('',#377);
#380=ORIENTED_EDGE('',*,*,#379,.T.);
#382=ORIENTED_EDGE('',*,*,#381,.T.);
#383=EDGE_LOOP('',(#380,#382));
#384=FACE_OUTER_BOUND('',#383,.F.);
#385=ORIENTED_EDGE('',*,*,#357,.F.);
#387=ORIENTED_EDGE('',*,*,#386,.F.);
#388=EDGE_LOOP('',(#385,#387));
#389=FACE_BOUND('',#388,.F.);
#390=ADVANCED_FACE('',(#384,#389),#378,.F.);
#391=FILL_AREA_STYLE_COLOUR('',#18);
#392=FILL_AREA_STYLE('',(#391));
#393=SURFACE_STYLE_FILL_AREA(#392);
#394=SURFACE_SIDE_STYLE('',(#393));
#395=SURFACE_STYLE_USAGE(.POSITIVE.,#394);
#396=PRESENTATION_STYLE_ASSIGNMENT((#395));
#397=STYLED_ITEM('',(#396),#390);
#398=CARTESIAN_POINT('',(0.E0,-6.9E1,0.E0));
#399=DIRECTION('',(0.E0,-1.E0,0.E0));
#400=DIRECTION('',(-1.E0,0.E0,0.E0));
#401=AXIS2_PLACEMENT_3D('',#398,#399,#400);
#402=CYLINDRICAL_SURFACE('',#401,1.1E0);
#404=ORIENTED_EDGE('',*,*,#403,.F.);
#406=ORIENTED_EDGE('',*,*,#405,.F.);
#407=ORIENTED_EDGE('',*,*,#379,.F.);
#409=ORIENTED_EDGE('',*,*,#408,.T.);
#410=EDGE_LOOP('',(#404,#406,#407,#409));
#411=FACE_OUTER_BOUND('',#410,.F.);
#412=ADVANCED_FACE('',(#411),#402,.T.);
#413=FILL_AREA_STYLE_COLOUR('',#17);
#414=FILL_AREA_STYLE('',(#413));
#415=SURFACE_STYLE_FILL_AREA(#414);
#416=SURFACE_SIDE_STYLE('',(#415));
#417=SURFACE_STYLE_USAGE(.POSITIVE.,#416);
#418=PRESENTATION_STYLE_ASSIGNMENT((#417));
#419=STYLED_ITEM('',(#418),#412);
#420=CARTESIAN_POINT('',(0.E0,-8.987499083468E1,0.E0));
#421=DIRECTION('',(0.E0,1.E0,0.E0));
#422=DIRECTION('',(0.E0,0.E0,-1.E0));
#423=AXIS2_PLACEMENT_3D('',#420,#421,#422);
#424=CONICAL_SURFACE('',#423,9.749930766852E-1,4.499952727707E1);
#425=ORIENTED_EDGE('',*,*,#403,.T.);
#427=ORIENTED_EDGE('',*,*,#426,.F.);
#429=ORIENTED_EDGE('',*,*,#428,.T.);
#431=ORIENTED_EDGE('',*,*,#430,.T.);
#432=EDGE_LOOP('',(#425,#427,#429,#431));
#433=FACE_OUTER_BOUND('',#432,.F.);
#434=ADVANCED_FACE('',(#433),#424,.T.);
#435=FILL_AREA_STYLE_COLOUR('',#17);
#436=FILL_AREA_STYLE('',(#435));
#437=SURFACE_STYLE_FILL_AREA(#436);
#438=SURFACE_SIDE_STYLE('',(#437));
#439=SURFACE_STYLE_USAGE(.POSITIVE.,#438);
#440=PRESENTATION_STYLE_ASSIGNMENT((#439));
#441=STYLED_ITEM('',(#440),#434);
#442=CARTESIAN_POINT('',(0.E0,-8.987499083468E1,0.E0));
#443=DIRECTION('',(0.E0,1.E0,0.E0));
#444=DIRECTION('',(0.E0,0.E0,-1.E0));
#445=AXIS2_PLACEMENT_3D('',#442,#443,#444);
#446=CONICAL_SURFACE('',#445,9.749930766852E-1,4.499952727707E1);
#448=ORIENTED_EDGE('',*,*,#447,.T.);
#449=ORIENTED_EDGE('',*,*,#430,.F.);
#451=ORIENTED_EDGE('',*,*,#450,.T.);
#452=ORIENTED_EDGE('',*,*,#426,.T.);
#453=EDGE_LOOP('',(#448,#449,#451,#452));
#454=FACE_OUTER_BOUND('',#453,.F.);
#455=ADVANCED_FACE('',(#454),#446,.T.);
#456=FILL_AREA_STYLE_COLOUR('',#17);
#457=FILL_AREA_STYLE('',(#456));
#458=SURFACE_STYLE_FILL_AREA(#457);
#459=SURFACE_SIDE_STYLE('',(#458));
#460=SURFACE_STYLE_USAGE(.POSITIVE.,#459);
#461=PRESENTATION_STYLE_ASSIGNMENT((#460));
#462=STYLED_ITEM('',(#461),#455);
#463=CARTESIAN_POINT('',(0.E0,-6.9E1,0.E0));
#464=DIRECTION('',(0.E0,-1.E0,0.E0));
#465=DIRECTION('',(-1.E0,0.E0,0.E0));
#466=AXIS2_PLACEMENT_3D('',#463,#464,#465);
#467=CYLINDRICAL_SURFACE('',#466,1.1E0);
#468=ORIENTED_EDGE('',*,*,#447,.F.);
#469=ORIENTED_EDGE('',*,*,#408,.F.);
#470=ORIENTED_EDGE('',*,*,#381,.F.);
#471=ORIENTED_EDGE('',*,*,#405,.T.);
#472=EDGE_LOOP('',(#468,#469,#470,#471));
#473=FACE_OUTER_BOUND('',#472,.F.);
#474=ADVANCED_FACE('',(#473),#467,.T.);
#475=FILL_AREA_STYLE_COLOUR('',#17);
#476=FILL_AREA_STYLE('',(#475));
#477=SURFACE_STYLE_FILL_AREA(#476);
#478=SURFACE_SIDE_STYLE('',(#477));
#479=SURFACE_STYLE_USAGE(.POSITIVE.,#478);
#480=PRESENTATION_STYLE_ASSIGNMENT((#479));
#481=STYLED_ITEM('',(#480),#474);
#482=CARTESIAN_POINT('',(0.E0,-9.E1,0.E0));
#483=DIRECTION('',(0.E0,-1.E0,0.E0));
#484=DIRECTION('',(-1.E0,0.E0,0.E0));
#485=AXIS2_PLACEMENT_3D('',#482,#483,#484);
#486=PLANE('',#485);
#487=ORIENTED_EDGE('',*,*,#428,.F.);
#488=ORIENTED_EDGE('',*,*,#450,.F.);
#489=EDGE_LOOP('',(#487,#488));
#490=FACE_OUTER_BOUND('',#489,.F.);
#491=ADVANCED_FACE('',(#490),#486,.T.);
#492=FILL_AREA_STYLE_COLOUR('',#17);
#493=FILL_AREA_STYLE('',(#492));
#494=SURFACE_STYLE_FILL_AREA(#493);
#495=SURFACE_SIDE_STYLE('',(#494));
#496=SURFACE_STYLE_USAGE(.POSITIVE.,#495);
#497=PRESENTATION_STYLE_ASSIGNMENT((#496));
#498=STYLED_ITEM('',(#497),#491);
#499=CARTESIAN_POINT('',(0.E0,-7.E0,0.E0));
#500=DIRECTION('',(0.E0,-1.E0,0.E0));
#501=DIRECTION('',(0.E0,0.E0,1.E0));
#502=AXIS2_PLACEMENT_3D('',#499,#500,#501);
#503=CYLINDRICAL_SURFACE('',#502,5.E-1);
#504=ORIENTED_EDGE('',*,*,#386,.T.);
#505=ORIENTED_EDGE('',*,*,#362,.F.);
#506=ORIENTED_EDGE('',*,*,#216,.F.);
#507=ORIENTED_EDGE('',*,*,#359,.T.);
#508=EDGE_LOOP('',(#504,#505,#506,#507));
#509=FACE_OUTER_BOUND('',#508,.F.);
#510=ADVANCED_FACE('',(#509),#503,.T.);
#511=FILL_AREA_STYLE_COLOUR('',#15);
#512=FILL_AREA_STYLE('',(#511));
#513=SURFACE_STYLE_FILL_AREA(#512);
#514=SURFACE_SIDE_STYLE('',(#513));
#515=SURFACE_STYLE_USAGE(.POSITIVE.,#514);
#516=PRESENTATION_STYLE_ASSIGNMENT((#515));
#517=STYLED_ITEM('',(#516),#510);
#518=CLOSED_SHELL('',(#220,#242,#262,#285,#307,#327,#344,#366,#390,#412,#434,
#455,#474,#491,#510));
#519=MANIFOLD_SOLID_BREP('',#518);
#521=DIMENSIONAL_EXPONENTS(0.E0,0.E0,0.E0,0.E0,0.E0,0.E0,0.E0);
#523=PLANE_ANGLE_MEASURE_WITH_UNIT(PLANE_ANGLE_MEASURE(1.745329251994E-2),#522);
#524=(CONVERSION_BASED_UNIT('DEGREE',#523)NAMED_UNIT(*)PLANE_ANGLE_UNIT());
#526=UNCERTAINTY_MEASURE_WITH_UNIT(LENGTH_MEASURE(2.024011283732E-3),#520,
'closure',
'Maximum model space distance between geometric entities at asserted connectivities');
#527=(GEOMETRIC_REPRESENTATION_CONTEXT(3)GLOBAL_UNCERTAINTY_ASSIGNED_CONTEXT((
#526))GLOBAL_UNIT_ASSIGNED_CONTEXT((#520,#524,#525))REPRESENTATION_CONTEXT
('ID1','3'));
#529=MECHANICAL_DESIGN_GEOMETRIC_PRESENTATION_REPRESENTATION('',(#227,#249,#269,
#292,#314,#334,#351,#373,#397,#419,#441,#462,#481,#498,#517),#527);
#530=APPLICATION_CONTEXT(
'CONFIGURATION CONTROLLED 3D DESIGNS OF MECHANICAL PARTS AND ASSEMBLIES');
#531=APPLICATION_PROTOCOL_DEFINITION('international standard',
'config_control_design',1994,#530);
#532=DESIGN_CONTEXT('',#530,'design');
#533=MECHANICAL_CONTEXT('',#530,'mechanical');
#534=PRODUCT('CAD2427_SW0001','CAD2427_SW0001','NOT SPECIFIED',(#533));
#535=PRODUCT_DEFINITION_FORMATION_WITH_SPECIFIED_SOURCE('1','LAST_VERSION',#534,
.MADE.);
#539=PRODUCT_CATEGORY('part','');
#540=PRODUCT_RELATED_PRODUCT_CATEGORY('detail','',(#534));
#541=PRODUCT_CATEGORY_RELATIONSHIP('','',#539,#540);
#542=SECURITY_CLASSIFICATION_LEVEL('unclassified');
#543=SECURITY_CLASSIFICATION('','',#542);
#544=CC_DESIGN_SECURITY_CLASSIFICATION(#543,(#535));
#545=APPROVAL_STATUS('approved');
#546=APPROVAL(#545,'');
#547=CC_DESIGN_APPROVAL(#546,(#543,#535,#536));
#548=CALENDAR_DATE(116,5,9);
#549=COORDINATED_UNIVERSAL_TIME_OFFSET(2,0,.AHEAD.);
#550=LOCAL_TIME(13,32,1.1E1,#549);
#551=DATE_AND_TIME(#548,#550);
#552=APPROVAL_DATE_TIME(#551,#546);
#553=DATE_TIME_ROLE('creation_date');
#554=CC_DESIGN_DATE_AND_TIME_ASSIGNMENT(#551,#553,(#536));
#555=DATE_TIME_ROLE('classification_date');
#556=CC_DESIGN_DATE_AND_TIME_ASSIGNMENT(#551,#555,(#543));
#557=PERSON('UNSPECIFIED','UNSPECIFIED',$,$,$,$);
#558=ORGANIZATION('UNSPECIFIED','UNSPECIFIED','UNSPECIFIED');
#559=PERSON_AND_ORGANIZATION(#557,#558);
#560=APPROVAL_ROLE('approver');
#561=APPROVAL_PERSON_ORGANIZATION(#559,#546,#560);
#562=PERSON_AND_ORGANIZATION_ROLE('creator');
#563=CC_DESIGN_PERSON_AND_ORGANIZATION_ASSIGNMENT(#559,#562,(#535,#536));
#564=PERSON_AND_ORGANIZATION_ROLE('design_supplier');
#565=CC_DESIGN_PERSON_AND_ORGANIZATION_ASSIGNMENT(#559,#564,(#535));
#566=PERSON_AND_ORGANIZATION_ROLE('classification_officer');
#567=CC_DESIGN_PERSON_AND_ORGANIZATION_ASSIGNMENT(#559,#566,(#543));
#568=PERSON_AND_ORGANIZATION_ROLE('design_owner');
#569=CC_DESIGN_PERSON_AND_ORGANIZATION_ASSIGNMENT(#559,#568,(#534));
#1=COLOUR_RGB('',0.E0,0.E0,1.96E-1);
#2=COLOUR_RGB('',0.E0,0.E0,3.14E-1);
#3=COLOUR_RGB('',0.E0,1.96E-1,0.E0);
#4=COLOUR_RGB('',0.E0,3.14E-1,0.E0);
#5=COLOUR_RGB('',7.8E-2,7.8E-2,7.8E-2);
#6=COLOUR_RGB('',1.18E-1,1.18E-1,4.71E-1);
#7=COLOUR_RGB('',1.57E-1,1.57E-1,1.57E-1);
#8=COLOUR_RGB('',1.96E-1,0.E0,0.E0);
#9=COLOUR_RGB('',1.96E-1,0.E0,1.96E-1);
#10=COLOUR_RGB('',1.96E-1,5.88E-1,1.96E-1);
#11=COLOUR_RGB('',2.35E-1,2.35E-1,2.35E-1);
#12=COLOUR_RGB('',2.35E-1,2.35E-1,5.88E-1);
#13=COLOUR_RGB('',3.14E-1,3.14E-1,3.14E-1);
#14=COLOUR_RGB('',3.27543E-1,1.E0,6.33116E-1);
#15=COLOUR_RGB('',3.27543E-1,1.E0,6.33116E-1);
#16=COLOUR_RGB('',3.27543E-1,1.E0,6.33116E-1);
#17=COLOUR_RGB('',3.27543E-1,1.E0,6.33116E-1);
#18=COLOUR_RGB('',3.27543E-1,1.E0,6.33116E-1);
#19=COLOUR_RGB('',3.92E-1,0.E0,0.E0);
#20=COLOUR_RGB('',3.92E-1,0.E0,3.92E-1);
#21=COLOUR_RGB('',3.92E-1,3.92E-1,3.92E-1);
#22=COLOUR_RGB('',3.92E-1,3.92E-1,8.63E-1);
#23=COLOUR_RGB('',3.92E-1,5.88E-1,3.92E-1);
#24=COLOUR_RGB('',3.92E-1,5.88E-1,8.63E-1);
#25=COLOUR_RGB('',5.01961E-1,1.E0,5.01961E-1);
#26=COLOUR_RGB('',5.5E-1,5.6E-1,7.E-1);
#27=COLOUR_RGB('',5.88E-1,5.88E-1,5.88E-1);
#28=COLOUR_RGB('',5.88E-1,7.84E-1,5.88E-1);
#29=COLOUR_RGB('',6.2E-1,3.1E-1,6.5E-1);
#30=COLOUR_RGB('',6.8E-1,8.5E-1,1.E0);
#31=COLOUR_RGB('',6.952E-1,7.426E-1,7.9E-1);
#32=COLOUR_RGB('',9.8E-1,3.92E-1,0.E0);
#33=COLOUR_RGB('',9.8E-1,5.88E-1,0.E0);
#34=COLOUR_RGB('',9.8E-1,7.84E-1,0.E0);
#35=COLOUR_RGB('',1.E0,3.7E-1,3.8E-1);
#36=DRAUGHTING_PRE_DEFINED_COLOUR('white');
#41=CIRCLE('',#40,7.5E-1);
#46=CIRCLE('',#45,7.5E-1);
#51=CIRCLE('',#50,5.E-1);
#56=CIRCLE('',#55,5.E-1);
#69=CIRCLE('',#68,7.5E-1);
#74=CIRCLE('',#73,7.5E-1);
#79=CIRCLE('',#78,1.25E-1);
#84=CIRCLE('',#83,1.25E-1);
#97=CIRCLE('',#96,1.25E-1);
#102=CIRCLE('',#101,1.25E-1);
#107=CIRCLE('',#106,5.E-1);
#116=CIRCLE('',#115,1.1E0);
#121=CIRCLE('',#120,1.1E0);
#130=CIRCLE('',#129,1.1E0);
#135=CIRCLE('',#134,8.499859741452E-1);
#144=CIRCLE('',#143,1.1E0);
#149=CIRCLE('',#148,8.499859741452E-1);
#162=CIRCLE('',#161,5.E-1);
#208=EDGE_CURVE('',#169,#170,#41,.T.);
#210=EDGE_CURVE('',#170,#169,#46,.T.);
#214=EDGE_CURVE('',#173,#174,#51,.T.);
#216=EDGE_CURVE('',#174,#173,#56,.T.);
#233=EDGE_CURVE('',#176,#169,#64,.T.);
#235=EDGE_CURVE('',#178,#176,#69,.T.);
#237=EDGE_CURVE('',#178,#170,#60,.T.);
#258=EDGE_CURVE('',#176,#178,#74,.T.);
#279=EDGE_CURVE('',#181,#182,#79,.T.);
#281=EDGE_CURVE('',#182,#181,#84,.T.);
#299=EDGE_CURVE('',#184,#181,#92,.T.);
#301=EDGE_CURVE('',#186,#184,#97,.T.);
#303=EDGE_CURVE('',#186,#182,#88,.T.);
#322=EDGE_CURVE('',#184,#186,#102,.T.);
#357=EDGE_CURVE('',#201,#202,#107,.T.);
#359=EDGE_CURVE('',#174,#202,#166,.T.);
#362=EDGE_CURVE('',#173,#201,#111,.T.);
#379=EDGE_CURVE('',#198,#196,#116,.T.);
#381=EDGE_CURVE('',#196,#198,#121,.T.);
#386=EDGE_CURVE('',#202,#201,#162,.T.);
#403=EDGE_CURVE('',#194,#190,#130,.T.);
#405=EDGE_CURVE('',#196,#194,#157,.T.);
#408=EDGE_CURVE('',#198,#190,#125,.T.);
#426=EDGE_CURVE('',#189,#190,#153,.T.);
#428=EDGE_CURVE('',#189,#193,#135,.T.);
#430=EDGE_CURVE('',#193,#194,#139,.T.);
#447=EDGE_CURVE('',#190,#194,#144,.T.);
#450=EDGE_CURVE('',#193,#189,#149,.T.);
#520=(LENGTH_UNIT()NAMED_UNIT(*)SI_UNIT(.MILLI.,.METRE.));
#522=(NAMED_UNIT(*)PLANE_ANGLE_UNIT()SI_UNIT($,.RADIAN.));
#525=(NAMED_UNIT(*)SI_UNIT($,.STERADIAN.)SOLID_ANGLE_UNIT());
#528=ADVANCED_BREP_SHAPE_REPRESENTATION('',(#519),#527);
#536=PRODUCT_DEFINITION('design','',#535,#532);
#537=PRODUCT_DEFINITION_SHAPE('','SHAPE FOR CAD2427_SW0001.',#536);
#538=SHAPE_DEFINITION_REPRESENTATION(#537,#528);
ENDSEC;
END-ISO-10303-21;
