ISO-10303-21;
HEADER;
FILE_DESCRIPTION((''),'2;1');
FILE_NAME('CAD2453_SW0001','2016-09-16T',('cmozuch'),(''),
'PRO/ENGINEER BY PARAMETRIC TECHNOLOGY CORPORATION, 2015440',
'PRO/ENGINEER BY PARAMETRIC TECHNOLOGY CORPORATION, 2015440','');
FILE_SCHEMA(('CONFIG_CONTROL_DESIGN'));
ENDSEC;
DATA;
#33=DIRECTION('',(0.E0,-1.E0,0.E0));
#34=VECTOR('',#33,1.E0);
#35=CARTESIAN_POINT('',(2.278115894290E0,7.754287036711E0,1.863384785675E0));
#36=LINE('',#35,#34);
#37=CARTESIAN_POINT('',(2.278115894290E0,6.754287036711E0,-6.161521432538E-2));
#38=DIRECTION('',(0.E0,1.E0,0.E0));
#39=DIRECTION('',(0.E0,0.E0,-1.E0));
#40=AXIS2_PLACEMENT_3D('',#37,#38,#39);
#42=CARTESIAN_POINT('',(2.278115894290E0,6.754287036711E0,-6.161521432538E-2));
#43=DIRECTION('',(0.E0,1.E0,0.E0));
#44=DIRECTION('',(0.E0,0.E0,1.E0));
#45=AXIS2_PLACEMENT_3D('',#42,#43,#44);
#47=CARTESIAN_POINT('',(2.278115894290E0,6.754287036711E0,-6.161521432538E-2));
#48=DIRECTION('',(0.E0,-1.E0,0.E0));
#49=DIRECTION('',(0.E0,0.E0,1.E0));
#50=AXIS2_PLACEMENT_3D('',#47,#48,#49);
#52=CARTESIAN_POINT('',(2.278115894290E0,6.754287036711E0,-6.161521432538E-2));
#53=DIRECTION('',(0.E0,-1.E0,0.E0));
#54=DIRECTION('',(0.E0,0.E0,-1.E0));
#55=AXIS2_PLACEMENT_3D('',#52,#53,#54);
#57=DIRECTION('',(0.E0,-1.E0,0.E0));
#58=VECTOR('',#57,1.E0);
#59=CARTESIAN_POINT('',(2.278115894290E0,7.754287036711E0,1.888384785675E0));
#60=LINE('',#59,#58);
#61=DIRECTION('',(0.E0,-1.E0,0.E0));
#62=VECTOR('',#61,1.E0);
#63=CARTESIAN_POINT('',(2.278115894290E0,7.754287036711E0,-2.011615214325E0));
#64=LINE('',#63,#62);
#65=CARTESIAN_POINT('',(2.278115894290E0,7.754287036711E0,-6.161521432538E-2));
#66=DIRECTION('',(0.E0,1.E0,0.E0));
#67=DIRECTION('',(0.E0,0.E0,-1.E0));
#68=AXIS2_PLACEMENT_3D('',#65,#66,#67);
#70=CARTESIAN_POINT('',(2.278115894290E0,7.754287036711E0,-6.161521432538E-2));
#71=DIRECTION('',(0.E0,1.E0,0.E0));
#72=DIRECTION('',(0.E0,0.E0,1.E0));
#73=AXIS2_PLACEMENT_3D('',#70,#71,#72);
#75=CARTESIAN_POINT('',(2.278115894290E0,7.754287036711E0,-6.161521432538E-2));
#76=DIRECTION('',(0.E0,-1.E0,0.E0));
#77=DIRECTION('',(0.E0,0.E0,-1.E0));
#78=AXIS2_PLACEMENT_3D('',#75,#76,#77);
#80=CARTESIAN_POINT('',(2.278115894290E0,7.754287036711E0,-6.161521432538E-2));
#81=DIRECTION('',(0.E0,-1.E0,0.E0));
#82=DIRECTION('',(0.E0,0.E0,1.E0));
#83=AXIS2_PLACEMENT_3D('',#80,#81,#82);
#85=DIRECTION('',(0.E0,1.E0,0.E0));
#86=VECTOR('',#85,1.01E1);
#87=CARTESIAN_POINT('',(2.278115894290E0,-2.345712963289E0,1.938384785675E0));
#88=LINE('',#87,#86);
#89=DIRECTION('',(0.E0,1.E0,0.E0));
#90=VECTOR('',#89,1.01E1);
#91=CARTESIAN_POINT('',(2.278115894290E0,-2.345712963289E0,-2.061615214325E0));
#92=LINE('',#91,#90);
#93=CARTESIAN_POINT('',(2.278115894290E0,-2.345712963289E0,-6.161521432538E-2));
#94=DIRECTION('',(0.E0,1.E0,0.E0));
#95=DIRECTION('',(0.E0,0.E0,1.E0));
#96=AXIS2_PLACEMENT_3D('',#93,#94,#95);
#98=CARTESIAN_POINT('',(2.278115894290E0,-2.345712963289E0,-6.161521432538E-2));
#99=DIRECTION('',(0.E0,1.E0,0.E0));
#100=DIRECTION('',(0.E0,0.E0,-1.E0));
#101=AXIS2_PLACEMENT_3D('',#98,#99,#100);
#103=CARTESIAN_POINT('',(2.278115894290E0,-2.345712963289E0,
-6.161521432538E-2));
#104=DIRECTION('',(0.E0,-1.E0,0.E0));
#105=DIRECTION('',(0.E0,0.E0,-1.E0));
#106=AXIS2_PLACEMENT_3D('',#103,#104,#105);
#108=CARTESIAN_POINT('',(2.278115894290E0,-2.345712963289E0,
-6.161521432538E-2));
#109=DIRECTION('',(0.E0,-1.E0,0.E0));
#110=DIRECTION('',(0.E0,0.E0,1.E0));
#111=AXIS2_PLACEMENT_3D('',#108,#109,#110);
#113=DIRECTION('',(0.E0,1.E0,0.E0));
#114=VECTOR('',#113,7.E0);
#115=CARTESIAN_POINT('',(2.278115894290E0,-9.345712963289E0,-2.561615214325E0));
#116=LINE('',#115,#114);
#117=DIRECTION('',(0.E0,1.E0,0.E0));
#118=VECTOR('',#117,7.E0);
#119=CARTESIAN_POINT('',(2.278115894290E0,-9.345712963289E0,2.438384785675E0));
#120=LINE('',#119,#118);
#121=CARTESIAN_POINT('',(2.278115894290E0,-9.345712963289E0,
-6.161521432538E-2));
#122=DIRECTION('',(0.E0,-1.E0,0.E0));
#123=DIRECTION('',(0.E0,0.E0,-1.E0));
#124=AXIS2_PLACEMENT_3D('',#121,#122,#123);
#126=CARTESIAN_POINT('',(2.278115894290E0,-9.345712963289E0,
-6.161521432538E-2));
#127=DIRECTION('',(0.E0,-1.E0,0.E0));
#128=DIRECTION('',(0.E0,0.E0,1.E0));
#129=AXIS2_PLACEMENT_3D('',#126,#127,#128);
#131=CARTESIAN_POINT('',(2.278115894290E0,-9.345712963289E0,
-6.161521432538E-2));
#132=DIRECTION('',(0.E0,1.E0,0.E0));
#133=DIRECTION('',(0.E0,0.E0,-1.E0));
#134=AXIS2_PLACEMENT_3D('',#131,#132,#133);
#136=CARTESIAN_POINT('',(2.278115894290E0,-9.345712963289E0,
-6.161521432538E-2));
#137=DIRECTION('',(0.E0,1.E0,0.E0));
#138=DIRECTION('',(0.E0,0.E0,1.E0));
#139=AXIS2_PLACEMENT_3D('',#136,#137,#138);
#141=DIRECTION('',(0.E0,1.E0,0.E0));
#142=VECTOR('',#141,7.E0);
#143=CARTESIAN_POINT('',(2.278115894290E0,-9.345712963289E0,-1.561615214325E0));
#144=LINE('',#143,#142);
#145=CARTESIAN_POINT('',(2.278115894290E0,-2.345712963289E0,
-6.161521432538E-2));
#146=DIRECTION('',(0.E0,-1.E0,0.E0));
#147=DIRECTION('',(0.E0,0.E0,1.E0));
#148=AXIS2_PLACEMENT_3D('',#145,#146,#147);
#150=CARTESIAN_POINT('',(2.278115894290E0,-2.345712963289E0,
-6.161521432538E-2));
#151=DIRECTION('',(0.E0,-1.E0,0.E0));
#152=DIRECTION('',(0.E0,0.E0,-1.E0));
#153=AXIS2_PLACEMENT_3D('',#150,#151,#152);
#155=DIRECTION('',(0.E0,1.E0,0.E0));
#156=VECTOR('',#155,7.E0);
#157=CARTESIAN_POINT('',(2.278115894290E0,-9.345712963289E0,1.438384785675E0));
#158=LINE('',#157,#156);
#159=DIRECTION('',(0.E0,-1.E0,0.E0));
#160=VECTOR('',#159,1.E0);
#161=CARTESIAN_POINT('',(2.278115894290E0,7.754287036711E0,-1.986615214325E0));
#162=LINE('',#161,#160);
#163=CARTESIAN_POINT('',(2.278115894290E0,7.754287036711E0,-6.161521432538E-2));
#164=DIRECTION('',(0.E0,1.E0,0.E0));
#165=DIRECTION('',(0.E0,0.E0,1.E0));
#166=AXIS2_PLACEMENT_3D('',#163,#164,#165);
#168=CARTESIAN_POINT('',(2.278115894290E0,7.754287036711E0,-6.161521432538E-2));
#169=DIRECTION('',(0.E0,1.E0,0.E0));
#170=DIRECTION('',(0.E0,0.E0,-1.E0));
#171=AXIS2_PLACEMENT_3D('',#168,#169,#170);
#173=CARTESIAN_POINT('',(2.278115894290E0,-2.345712963289E0,1.438384785675E0));
#174=CARTESIAN_POINT('',(2.278115894290E0,-2.345712963289E0,-1.561615214325E0));
#175=VERTEX_POINT('',#173);
#176=VERTEX_POINT('',#174);
#177=CARTESIAN_POINT('',(2.278115894290E0,-2.345712963289E0,2.438384785675E0));
#178=CARTESIAN_POINT('',(2.278115894290E0,-2.345712963289E0,-2.561615214325E0));
#179=VERTEX_POINT('',#177);
#180=VERTEX_POINT('',#178);
#181=CARTESIAN_POINT('',(2.278115894290E0,-9.345712963289E0,2.438384785675E0));
#182=VERTEX_POINT('',#181);
#183=CARTESIAN_POINT('',(2.278115894290E0,-9.345712963289E0,-2.561615214325E0));
#184=VERTEX_POINT('',#183);
#185=CARTESIAN_POINT('',(2.278115894290E0,7.754287036711E0,1.938384785675E0));
#186=CARTESIAN_POINT('',(2.278115894290E0,7.754287036711E0,-2.061615214325E0));
#187=VERTEX_POINT('',#185);
#188=VERTEX_POINT('',#186);
#189=CARTESIAN_POINT('',(2.278115894290E0,-2.345712963289E0,1.938384785675E0));
#190=VERTEX_POINT('',#189);
#191=CARTESIAN_POINT('',(2.278115894290E0,-2.345712963289E0,-2.061615214325E0));
#192=VERTEX_POINT('',#191);
#193=CARTESIAN_POINT('',(2.278115894290E0,7.754287036711E0,1.888384785675E0));
#194=CARTESIAN_POINT('',(2.278115894290E0,6.754287036711E0,1.888384785675E0));
#195=VERTEX_POINT('',#193);
#196=VERTEX_POINT('',#194);
#197=CARTESIAN_POINT('',(2.278115894290E0,6.754287036711E0,1.863384785675E0));
#198=CARTESIAN_POINT('',(2.278115894290E0,6.754287036711E0,-1.986615214325E0));
#199=VERTEX_POINT('',#197);
#200=VERTEX_POINT('',#198);
#201=CARTESIAN_POINT('',(2.278115894290E0,-9.345712963289E0,1.438384785675E0));
#202=CARTESIAN_POINT('',(2.278115894290E0,-9.345712963289E0,-1.561615214325E0));
#203=VERTEX_POINT('',#201);
#204=VERTEX_POINT('',#202);
#205=CARTESIAN_POINT('',(2.278115894290E0,7.754287036711E0,-1.986615214325E0));
#206=CARTESIAN_POINT('',(2.278115894290E0,7.754287036711E0,1.863384785675E0));
#207=VERTEX_POINT('',#205);
#208=VERTEX_POINT('',#206);
#209=CARTESIAN_POINT('',(2.278115894290E0,6.754287036711E0,-2.011615214325E0));
#210=VERTEX_POINT('',#209);
#211=CARTESIAN_POINT('',(2.278115894290E0,7.754287036711E0,-2.011615214325E0));
#212=VERTEX_POINT('',#211);
#213=CARTESIAN_POINT('',(2.278115894290E0,6.754287036710E0,-6.161521432538E-2));
#214=DIRECTION('',(0.E0,1.E0,0.E0));
#215=DIRECTION('',(0.E0,0.E0,1.E0));
#216=AXIS2_PLACEMENT_3D('',#213,#214,#215);
#217=CYLINDRICAL_SURFACE('',#216,1.925E0);
#219=ORIENTED_EDGE('',*,*,#218,.T.);
#221=ORIENTED_EDGE('',*,*,#220,.F.);
#223=ORIENTED_EDGE('',*,*,#222,.T.);
#225=ORIENTED_EDGE('',*,*,#224,.T.);
#226=EDGE_LOOP('',(#219,#221,#223,#225));
#227=FACE_OUTER_BOUND('',#226,.F.);
#228=ADVANCED_FACE('',(#227),#217,.T.);
#229=FILL_AREA_STYLE_COLOUR('',#14);
#230=FILL_AREA_STYLE('',(#229));
#231=SURFACE_STYLE_FILL_AREA(#230);
#232=SURFACE_SIDE_STYLE('',(#231));
#233=SURFACE_STYLE_USAGE(.POSITIVE.,#232);
#234=PRESENTATION_STYLE_ASSIGNMENT((#233));
#235=STYLED_ITEM('',(#234),#228);
#236=CARTESIAN_POINT('',(2.501158942903E-1,6.754287036711E0,1.966384785675E0));
#237=DIRECTION('',(0.E0,1.E0,0.E0));
#238=DIRECTION('',(1.E0,0.E0,0.E0));
#239=AXIS2_PLACEMENT_3D('',#236,#237,#238);
#240=PLANE('',#239);
#242=ORIENTED_EDGE('',*,*,#241,.F.);
#244=ORIENTED_EDGE('',*,*,#243,.F.);
#245=EDGE_LOOP('',(#242,#244));
#246=FACE_OUTER_BOUND('',#245,.F.);
#248=ORIENTED_EDGE('',*,*,#247,.F.);
#249=ORIENTED_EDGE('',*,*,#218,.F.);
#250=EDGE_LOOP('',(#248,#249));
#251=FACE_BOUND('',#250,.F.);
#252=ADVANCED_FACE('',(#246,#251),#240,.T.);
#253=FILL_AREA_STYLE_COLOUR('',#14);
#254=FILL_AREA_STYLE('',(#253));
#255=SURFACE_STYLE_FILL_AREA(#254);
#256=SURFACE_SIDE_STYLE('',(#255));
#257=SURFACE_STYLE_USAGE(.POSITIVE.,#256);
#258=PRESENTATION_STYLE_ASSIGNMENT((#257));
#259=STYLED_ITEM('',(#258),#252);
#260=CARTESIAN_POINT('',(2.278115894290E0,6.754287036710E0,-6.161521432538E-2));
#261=DIRECTION('',(0.E0,1.E0,0.E0));
#262=DIRECTION('',(0.E0,0.E0,1.E0));
#263=AXIS2_PLACEMENT_3D('',#260,#261,#262);
#264=CYLINDRICAL_SURFACE('',#263,1.95E0);
#265=ORIENTED_EDGE('',*,*,#241,.T.);
#267=ORIENTED_EDGE('',*,*,#266,.F.);
#269=ORIENTED_EDGE('',*,*,#268,.T.);
#271=ORIENTED_EDGE('',*,*,#270,.T.);
#272=EDGE_LOOP('',(#265,#267,#269,#271));
#273=FACE_OUTER_BOUND('',#272,.F.);
#274=ADVANCED_FACE('',(#273),#264,.F.);
#275=FILL_AREA_STYLE_COLOUR('',#14);
#276=FILL_AREA_STYLE('',(#275));
#277=SURFACE_STYLE_FILL_AREA(#276);
#278=SURFACE_SIDE_STYLE('',(#277));
#279=SURFACE_STYLE_USAGE(.POSITIVE.,#278);
#280=PRESENTATION_STYLE_ASSIGNMENT((#279));
#281=STYLED_ITEM('',(#280),#274);
#282=CARTESIAN_POINT('',(2.278115894290E0,6.754287036710E0,-6.161521432538E-2));
#283=DIRECTION('',(0.E0,1.E0,0.E0));
#284=DIRECTION('',(0.E0,0.E0,1.E0));
#285=AXIS2_PLACEMENT_3D('',#282,#283,#284);
#286=CYLINDRICAL_SURFACE('',#285,1.95E0);
#287=ORIENTED_EDGE('',*,*,#270,.F.);
#289=ORIENTED_EDGE('',*,*,#288,.T.);
#290=ORIENTED_EDGE('',*,*,#266,.T.);
#291=ORIENTED_EDGE('',*,*,#243,.T.);
#292=EDGE_LOOP('',(#287,#289,#290,#291));
#293=FACE_OUTER_BOUND('',#292,.F.);
#294=ADVANCED_FACE('',(#293),#286,.F.);
#295=FILL_AREA_STYLE_COLOUR('',#14);
#296=FILL_AREA_STYLE('',(#295));
#297=SURFACE_STYLE_FILL_AREA(#296);
#298=SURFACE_SIDE_STYLE('',(#297));
#299=SURFACE_STYLE_USAGE(.POSITIVE.,#298);
#300=PRESENTATION_STYLE_ASSIGNMENT((#299));
#301=STYLED_ITEM('',(#300),#294);
#302=CARTESIAN_POINT('',(4.360199908493E0,7.754287036711E0,-2.141615214325E0));
#303=DIRECTION('',(0.E0,-1.E0,0.E0));
#304=DIRECTION('',(0.E0,0.E0,1.E0));
#305=AXIS2_PLACEMENT_3D('',#302,#303,#304);
#306=PLANE('',#305);
#308=ORIENTED_EDGE('',*,*,#307,.F.);
#310=ORIENTED_EDGE('',*,*,#309,.F.);
#311=EDGE_LOOP('',(#308,#310));
#312=FACE_OUTER_BOUND('',#311,.F.);
#313=ORIENTED_EDGE('',*,*,#288,.F.);
#314=ORIENTED_EDGE('',*,*,#268,.F.);
#315=EDGE_LOOP('',(#313,#314));
#316=FACE_BOUND('',#315,.F.);
#317=ADVANCED_FACE('',(#312,#316),#306,.F.);
#318=FILL_AREA_STYLE_COLOUR('',#14);
#319=FILL_AREA_STYLE('',(#318));
#320=SURFACE_STYLE_FILL_AREA(#319);
#321=SURFACE_SIDE_STYLE('',(#320));
#322=SURFACE_STYLE_USAGE(.POSITIVE.,#321);
#323=PRESENTATION_STYLE_ASSIGNMENT((#322));
#324=STYLED_ITEM('',(#323),#317);
#325=CARTESIAN_POINT('',(2.278115894290E0,7.754287036711E0,-6.161521432538E-2));
#326=DIRECTION('',(0.E0,-1.E0,0.E0));
#327=DIRECTION('',(0.E0,0.E0,-1.E0));
#328=AXIS2_PLACEMENT_3D('',#325,#326,#327);
#329=CYLINDRICAL_SURFACE('',#328,2.E0);
#331=ORIENTED_EDGE('',*,*,#330,.F.);
#333=ORIENTED_EDGE('',*,*,#332,.T.);
#335=ORIENTED_EDGE('',*,*,#334,.T.);
#336=ORIENTED_EDGE('',*,*,#307,.T.);
#337=EDGE_LOOP('',(#331,#333,#335,#336));
#338=FACE_OUTER_BOUND('',#337,.F.);
#339=ADVANCED_FACE('',(#338),#329,.T.);
#340=FILL_AREA_STYLE_COLOUR('',#14);
#341=FILL_AREA_STYLE('',(#340));
#342=SURFACE_STYLE_FILL_AREA(#341);
#343=SURFACE_SIDE_STYLE('',(#342));
#344=SURFACE_STYLE_USAGE(.POSITIVE.,#343);
#345=PRESENTATION_STYLE_ASSIGNMENT((#344));
#346=STYLED_ITEM('',(#345),#339);
#347=CARTESIAN_POINT('',(2.278115894290E0,7.754287036711E0,-6.161521432538E-2));
#348=DIRECTION('',(0.E0,-1.E0,0.E0));
#349=DIRECTION('',(0.E0,0.E0,-1.E0));
#350=AXIS2_PLACEMENT_3D('',#347,#348,#349);
#351=CYLINDRICAL_SURFACE('',#350,2.E0);
#352=ORIENTED_EDGE('',*,*,#309,.T.);
#353=ORIENTED_EDGE('',*,*,#334,.F.);
#355=ORIENTED_EDGE('',*,*,#354,.T.);
#356=ORIENTED_EDGE('',*,*,#330,.T.);
#357=EDGE_LOOP('',(#352,#353,#355,#356));
#358=FACE_OUTER_BOUND('',#357,.F.);
#359=ADVANCED_FACE('',(#358),#351,.T.);
#360=FILL_AREA_STYLE_COLOUR('',#14);
#361=FILL_AREA_STYLE('',(#360));
#362=SURFACE_STYLE_FILL_AREA(#361);
#363=SURFACE_SIDE_STYLE('',(#362));
#364=SURFACE_STYLE_USAGE(.POSITIVE.,#363);
#365=PRESENTATION_STYLE_ASSIGNMENT((#364));
#366=STYLED_ITEM('',(#365),#359);
#367=CARTESIAN_POINT('',(4.878115894290E0,-2.345712963289E0,-2.661615214325E0));
#368=DIRECTION('',(0.E0,-1.E0,0.E0));
#369=DIRECTION('',(0.E0,0.E0,1.E0));
#370=AXIS2_PLACEMENT_3D('',#367,#368,#369);
#371=PLANE('',#370);
#373=ORIENTED_EDGE('',*,*,#372,.F.);
#375=ORIENTED_EDGE('',*,*,#374,.F.);
#376=EDGE_LOOP('',(#373,#375));
#377=FACE_OUTER_BOUND('',#376,.F.);
#378=ORIENTED_EDGE('',*,*,#354,.F.);
#379=ORIENTED_EDGE('',*,*,#332,.F.);
#380=EDGE_LOOP('',(#378,#379));
#381=FACE_BOUND('',#380,.F.);
#382=ADVANCED_FACE('',(#377,#381),#371,.F.);
#383=FILL_AREA_STYLE_COLOUR('',#14);
#384=FILL_AREA_STYLE('',(#383));
#385=SURFACE_STYLE_FILL_AREA(#384);
#386=SURFACE_SIDE_STYLE('',(#385));
#387=SURFACE_STYLE_USAGE(.POSITIVE.,#386);
#388=PRESENTATION_STYLE_ASSIGNMENT((#387));
#389=STYLED_ITEM('',(#388),#382);
#390=CARTESIAN_POINT('',(2.278115894290E0,-2.345712963289E0,
-6.161521432538E-2));
#391=DIRECTION('',(0.E0,-1.E0,0.E0));
#392=DIRECTION('',(0.E0,0.E0,-1.E0));
#393=AXIS2_PLACEMENT_3D('',#390,#391,#392);
#394=CYLINDRICAL_SURFACE('',#393,2.5E0);
#395=ORIENTED_EDGE('',*,*,#372,.T.);
#397=ORIENTED_EDGE('',*,*,#396,.F.);
#399=ORIENTED_EDGE('',*,*,#398,.T.);
#401=ORIENTED_EDGE('',*,*,#400,.T.);
#402=EDGE_LOOP('',(#395,#397,#399,#401));
#403=FACE_OUTER_BOUND('',#402,.F.);
#404=ADVANCED_FACE('',(#403),#394,.T.);
#405=FILL_AREA_STYLE_COLOUR('',#14);
#406=FILL_AREA_STYLE('',(#405));
#407=SURFACE_STYLE_FILL_AREA(#406);
#408=SURFACE_SIDE_STYLE('',(#407));
#409=SURFACE_STYLE_USAGE(.POSITIVE.,#408);
#410=PRESENTATION_STYLE_ASSIGNMENT((#409));
#411=STYLED_ITEM('',(#410),#404);
#412=CARTESIAN_POINT('',(2.278115894290E0,-2.345712963289E0,
-6.161521432538E-2));
#413=DIRECTION('',(0.E0,-1.E0,0.E0));
#414=DIRECTION('',(0.E0,0.E0,-1.E0));
#415=AXIS2_PLACEMENT_3D('',#412,#413,#414);
#416=CYLINDRICAL_SURFACE('',#415,2.5E0);
#417=ORIENTED_EDGE('',*,*,#400,.F.);
#419=ORIENTED_EDGE('',*,*,#418,.T.);
#420=ORIENTED_EDGE('',*,*,#396,.T.);
#421=ORIENTED_EDGE('',*,*,#374,.T.);
#422=EDGE_LOOP('',(#417,#419,#420,#421));
#423=FACE_OUTER_BOUND('',#422,.F.);
#424=ADVANCED_FACE('',(#423),#416,.T.);
#425=FILL_AREA_STYLE_COLOUR('',#14);
#426=FILL_AREA_STYLE('',(#425));
#427=SURFACE_STYLE_FILL_AREA(#426);
#428=SURFACE_SIDE_STYLE('',(#427));
#429=SURFACE_STYLE_USAGE(.POSITIVE.,#428);
#430=PRESENTATION_STYLE_ASSIGNMENT((#429));
#431=STYLED_ITEM('',(#430),#424);
#432=CARTESIAN_POINT('',(4.878115894290E0,-9.345712963289E0,-2.661615214325E0));
#433=DIRECTION('',(0.E0,-1.E0,0.E0));
#434=DIRECTION('',(0.E0,0.E0,1.E0));
#435=AXIS2_PLACEMENT_3D('',#432,#433,#434);
#436=PLANE('',#435);
#437=ORIENTED_EDGE('',*,*,#398,.F.);
#438=ORIENTED_EDGE('',*,*,#418,.F.);
#439=EDGE_LOOP('',(#437,#438));
#440=FACE_OUTER_BOUND('',#439,.F.);
#442=ORIENTED_EDGE('',*,*,#441,.F.);
#444=ORIENTED_EDGE('',*,*,#443,.F.);
#445=EDGE_LOOP('',(#442,#444));
#446=FACE_BOUND('',#445,.F.);
#447=ADVANCED_FACE('',(#440,#446),#436,.T.);
#448=FILL_AREA_STYLE_COLOUR('',#14);
#449=FILL_AREA_STYLE('',(#448));
#450=SURFACE_STYLE_FILL_AREA(#449);
#451=SURFACE_SIDE_STYLE('',(#450));
#452=SURFACE_STYLE_USAGE(.POSITIVE.,#451);
#453=PRESENTATION_STYLE_ASSIGNMENT((#452));
#454=STYLED_ITEM('',(#453),#447);
#455=CARTESIAN_POINT('',(2.278115894290E0,-2.345712963289E0,
-6.161521432538E-2));
#456=DIRECTION('',(0.E0,-1.E0,0.E0));
#457=DIRECTION('',(0.E0,0.E0,-1.E0));
#458=AXIS2_PLACEMENT_3D('',#455,#456,#457);
#459=CYLINDRICAL_SURFACE('',#458,1.5E0);
#461=ORIENTED_EDGE('',*,*,#460,.T.);
#463=ORIENTED_EDGE('',*,*,#462,.F.);
#464=ORIENTED_EDGE('',*,*,#441,.T.);
#466=ORIENTED_EDGE('',*,*,#465,.T.);
#467=EDGE_LOOP('',(#461,#463,#464,#466));
#468=FACE_OUTER_BOUND('',#467,.F.);
#469=ADVANCED_FACE('',(#468),#459,.F.);
#470=FILL_AREA_STYLE_COLOUR('',#14);
#471=FILL_AREA_STYLE('',(#470));
#472=SURFACE_STYLE_FILL_AREA(#471);
#473=SURFACE_SIDE_STYLE('',(#472));
#474=SURFACE_STYLE_USAGE(.POSITIVE.,#473);
#475=PRESENTATION_STYLE_ASSIGNMENT((#474));
#476=STYLED_ITEM('',(#475),#469);
#477=CARTESIAN_POINT('',(7.156432639203E-1,-2.345712963289E0,1.498384785675E0));
#478=DIRECTION('',(0.E0,-1.E0,0.E0));
#479=DIRECTION('',(0.E0,0.E0,-1.E0));
#480=AXIS2_PLACEMENT_3D('',#477,#478,#479);
#481=PLANE('',#480);
#482=ORIENTED_EDGE('',*,*,#460,.F.);
#484=ORIENTED_EDGE('',*,*,#483,.F.);
#485=EDGE_LOOP('',(#482,#484));
#486=FACE_OUTER_BOUND('',#485,.F.);
#487=ADVANCED_FACE('',(#486),#481,.T.);
#488=FILL_AREA_STYLE_COLOUR('',#14);
#489=FILL_AREA_STYLE('',(#488));
#490=SURFACE_STYLE_FILL_AREA(#489);
#491=SURFACE_SIDE_STYLE('',(#490));
#492=SURFACE_STYLE_USAGE(.POSITIVE.,#491);
#493=PRESENTATION_STYLE_ASSIGNMENT((#492));
#494=STYLED_ITEM('',(#493),#487);
#495=CARTESIAN_POINT('',(2.278115894290E0,-2.345712963289E0,
-6.161521432538E-2));
#496=DIRECTION('',(0.E0,-1.E0,0.E0));
#497=DIRECTION('',(0.E0,0.E0,-1.E0));
#498=AXIS2_PLACEMENT_3D('',#495,#496,#497);
#499=CYLINDRICAL_SURFACE('',#498,1.5E0);
#500=ORIENTED_EDGE('',*,*,#465,.F.);
#501=ORIENTED_EDGE('',*,*,#443,.T.);
#502=ORIENTED_EDGE('',*,*,#462,.T.);
#503=ORIENTED_EDGE('',*,*,#483,.T.);
#504=EDGE_LOOP('',(#500,#501,#502,#503));
#505=FACE_OUTER_BOUND('',#504,.F.);
#506=ADVANCED_FACE('',(#505),#499,.F.);
#507=FILL_AREA_STYLE_COLOUR('',#14);
#508=FILL_AREA_STYLE('',(#507));
#509=SURFACE_STYLE_FILL_AREA(#508);
#510=SURFACE_SIDE_STYLE('',(#509));
#511=SURFACE_STYLE_USAGE(.POSITIVE.,#510);
#512=PRESENTATION_STYLE_ASSIGNMENT((#511));
#513=STYLED_ITEM('',(#512),#506);
#514=CARTESIAN_POINT('',(2.278115894290E0,6.754287036710E0,-6.161521432538E-2));
#515=DIRECTION('',(0.E0,1.E0,0.E0));
#516=DIRECTION('',(0.E0,0.E0,1.E0));
#517=AXIS2_PLACEMENT_3D('',#514,#515,#516);
#518=CYLINDRICAL_SURFACE('',#517,1.925E0);
#519=ORIENTED_EDGE('',*,*,#224,.F.);
#521=ORIENTED_EDGE('',*,*,#520,.T.);
#522=ORIENTED_EDGE('',*,*,#220,.T.);
#523=ORIENTED_EDGE('',*,*,#247,.T.);
#524=EDGE_LOOP('',(#519,#521,#522,#523));
#525=FACE_OUTER_BOUND('',#524,.F.);
#526=ADVANCED_FACE('',(#525),#518,.T.);
#527=FILL_AREA_STYLE_COLOUR('',#14);
#528=FILL_AREA_STYLE('',(#527));
#529=SURFACE_STYLE_FILL_AREA(#528);
#530=SURFACE_SIDE_STYLE('',(#529));
#531=SURFACE_STYLE_USAGE(.POSITIVE.,#530);
#532=PRESENTATION_STYLE_ASSIGNMENT((#531));
#533=STYLED_ITEM('',(#532),#526);
#534=CARTESIAN_POINT('',(4.360199908493E0,7.754287036711E0,-2.141615214325E0));
#535=DIRECTION('',(0.E0,-1.E0,0.E0));
#536=DIRECTION('',(0.E0,0.E0,1.E0));
#537=AXIS2_PLACEMENT_3D('',#534,#535,#536);
#538=PLANE('',#537);
#539=ORIENTED_EDGE('',*,*,#222,.F.);
#540=ORIENTED_EDGE('',*,*,#520,.F.);
#541=EDGE_LOOP('',(#539,#540));
#542=FACE_OUTER_BOUND('',#541,.F.);
#543=ADVANCED_FACE('',(#542),#538,.F.);
#544=FILL_AREA_STYLE_COLOUR('',#14);
#545=FILL_AREA_STYLE('',(#544));
#546=SURFACE_STYLE_FILL_AREA(#545);
#547=SURFACE_SIDE_STYLE('',(#546));
#548=SURFACE_STYLE_USAGE(.POSITIVE.,#547);
#549=PRESENTATION_STYLE_ASSIGNMENT((#548));
#550=STYLED_ITEM('',(#549),#543);
#551=CLOSED_SHELL('',(#228,#252,#274,#294,#317,#339,#359,#382,#404,#424,#447,
#469,#487,#506,#526,#543));
#552=MANIFOLD_SOLID_BREP('',#551);
#554=DIMENSIONAL_EXPONENTS(0.E0,0.E0,0.E0,0.E0,0.E0,0.E0,0.E0);
#556=PLANE_ANGLE_MEASURE_WITH_UNIT(PLANE_ANGLE_MEASURE(1.745329251994E-2),#555);
#557=(CONVERSION_BASED_UNIT('DEGREE',#556)NAMED_UNIT(*)PLANE_ANGLE_UNIT());
#559=UNCERTAINTY_MEASURE_WITH_UNIT(LENGTH_MEASURE(1.850358364609E-3),#553,
'closure',
'Maximum model space distance between geometric entities at asserted connectivities');
#560=(GEOMETRIC_REPRESENTATION_CONTEXT(3)GLOBAL_UNCERTAINTY_ASSIGNED_CONTEXT((
#559))GLOBAL_UNIT_ASSIGNED_CONTEXT((#553,#557,#558))REPRESENTATION_CONTEXT
('ID1','3'));
#562=MECHANICAL_DESIGN_GEOMETRIC_PRESENTATION_REPRESENTATION('',(#235,#259,#281,
#301,#324,#346,#366,#389,#411,#431,#454,#476,#494,#513,#533,#550),#560);
#563=APPLICATION_CONTEXT(
'CONFIGURATION CONTROLLED 3D DESIGNS OF MECHANICAL PARTS AND ASSEMBLIES');
#564=APPLICATION_PROTOCOL_DEFINITION('international standard',
'config_control_design',1994,#563);
#565=DESIGN_CONTEXT('',#563,'design');
#566=MECHANICAL_CONTEXT('',#563,'mechanical');
#567=PRODUCT('CAD2453_SW0001','CAD2453_SW0001','NOT SPECIFIED',(#566));
#568=PRODUCT_DEFINITION_FORMATION_WITH_SPECIFIED_SOURCE('1','LAST_VERSION',#567,
.MADE.);
#572=PRODUCT_CATEGORY('part','');
#573=PRODUCT_RELATED_PRODUCT_CATEGORY('detail','',(#567));
#574=PRODUCT_CATEGORY_RELATIONSHIP('','',#572,#573);
#575=SECURITY_CLASSIFICATION_LEVEL('unclassified');
#576=SECURITY_CLASSIFICATION('','',#575);
#577=CC_DESIGN_SECURITY_CLASSIFICATION(#576,(#568));
#578=APPROVAL_STATUS('approved');
#579=APPROVAL(#578,'');
#580=CC_DESIGN_APPROVAL(#579,(#576,#568,#569));
#581=CALENDAR_DATE(116,16,9);
#582=COORDINATED_UNIVERSAL_TIME_OFFSET(2,0,.AHEAD.);
#583=LOCAL_TIME(8,55,2.E1,#582);
#584=DATE_AND_TIME(#581,#583);
#585=APPROVAL_DATE_TIME(#584,#579);
#586=DATE_TIME_ROLE('creation_date');
#587=CC_DESIGN_DATE_AND_TIME_ASSIGNMENT(#584,#586,(#569));
#588=DATE_TIME_ROLE('classification_date');
#589=CC_DESIGN_DATE_AND_TIME_ASSIGNMENT(#584,#588,(#576));
#590=PERSON('UNSPECIFIED','UNSPECIFIED',$,$,$,$);
#591=ORGANIZATION('UNSPECIFIED','UNSPECIFIED','UNSPECIFIED');
#592=PERSON_AND_ORGANIZATION(#590,#591);
#593=APPROVAL_ROLE('approver');
#594=APPROVAL_PERSON_ORGANIZATION(#592,#579,#593);
#595=PERSON_AND_ORGANIZATION_ROLE('creator');
#596=CC_DESIGN_PERSON_AND_ORGANIZATION_ASSIGNMENT(#592,#595,(#568,#569));
#597=PERSON_AND_ORGANIZATION_ROLE('design_supplier');
#598=CC_DESIGN_PERSON_AND_ORGANIZATION_ASSIGNMENT(#592,#597,(#568));
#599=PERSON_AND_ORGANIZATION_ROLE('classification_officer');
#600=CC_DESIGN_PERSON_AND_ORGANIZATION_ASSIGNMENT(#592,#599,(#576));
#601=PERSON_AND_ORGANIZATION_ROLE('design_owner');
#602=CC_DESIGN_PERSON_AND_ORGANIZATION_ASSIGNMENT(#592,#601,(#567));
#1=COLOUR_RGB('',0.E0,0.E0,1.96E-1);
#2=COLOUR_RGB('',0.E0,0.E0,3.14E-1);
#3=COLOUR_RGB('',0.E0,1.96E-1,0.E0);
#4=COLOUR_RGB('',0.E0,3.14E-1,0.E0);
#5=COLOUR_RGB('',7.8E-2,7.8E-2,7.8E-2);
#6=COLOUR_RGB('',1.18E-1,1.18E-1,4.71E-1);
#7=COLOUR_RGB('',1.57E-1,1.57E-1,1.57E-1);
#8=COLOUR_RGB('',1.96E-1,0.E0,0.E0);
#9=COLOUR_RGB('',1.96E-1,0.E0,1.96E-1);
#10=COLOUR_RGB('',1.96E-1,5.88E-1,1.96E-1);
#11=COLOUR_RGB('',2.35E-1,2.35E-1,2.35E-1);
#12=COLOUR_RGB('',2.35E-1,2.35E-1,5.88E-1);
#13=COLOUR_RGB('',3.14E-1,3.14E-1,3.14E-1);
#14=COLOUR_RGB('',3.27543E-1,1.E0,6.33116E-1);
#15=COLOUR_RGB('',3.92E-1,0.E0,0.E0);
#16=COLOUR_RGB('',3.92E-1,0.E0,3.92E-1);
#17=COLOUR_RGB('',3.92E-1,3.92E-1,3.92E-1);
#18=COLOUR_RGB('',3.92E-1,3.92E-1,8.63E-1);
#19=COLOUR_RGB('',3.92E-1,5.88E-1,3.92E-1);
#20=COLOUR_RGB('',3.92E-1,5.88E-1,8.63E-1);
#21=COLOUR_RGB('',5.01961E-1,1.E0,5.01961E-1);
#22=COLOUR_RGB('',5.5E-1,5.6E-1,7.E-1);
#23=COLOUR_RGB('',5.88E-1,5.88E-1,5.88E-1);
#24=COLOUR_RGB('',5.88E-1,7.84E-1,5.88E-1);
#25=COLOUR_RGB('',6.2E-1,3.1E-1,6.5E-1);
#26=COLOUR_RGB('',6.8E-1,8.5E-1,1.E0);
#27=COLOUR_RGB('',6.952E-1,7.426E-1,7.9E-1);
#28=COLOUR_RGB('',9.8E-1,3.92E-1,0.E0);
#29=COLOUR_RGB('',9.8E-1,5.88E-1,0.E0);
#30=COLOUR_RGB('',9.8E-1,7.84E-1,0.E0);
#31=COLOUR_RGB('',1.E0,3.7E-1,3.8E-1);
#32=DRAUGHTING_PRE_DEFINED_COLOUR('white');
#41=CIRCLE('',#40,1.95E0);
#46=CIRCLE('',#45,1.95E0);
#51=CIRCLE('',#50,1.925E0);
#56=CIRCLE('',#55,1.925E0);
#69=CIRCLE('',#68,2.E0);
#74=CIRCLE('',#73,2.E0);
#79=CIRCLE('',#78,1.95E0);
#84=CIRCLE('',#83,1.95E0);
#97=CIRCLE('',#96,2.5E0);
#102=CIRCLE('',#101,2.5E0);
#107=CIRCLE('',#106,2.E0);
#112=CIRCLE('',#111,2.E0);
#125=CIRCLE('',#124,2.5E0);
#130=CIRCLE('',#129,2.5E0);
#135=CIRCLE('',#134,1.5E0);
#140=CIRCLE('',#139,1.5E0);
#149=CIRCLE('',#148,1.5E0);
#154=CIRCLE('',#153,1.5E0);
#167=CIRCLE('',#166,1.925E0);
#172=CIRCLE('',#171,1.925E0);
#218=EDGE_CURVE('',#200,#199,#56,.T.);
#220=EDGE_CURVE('',#208,#199,#36,.T.);
#222=EDGE_CURVE('',#208,#207,#167,.T.);
#224=EDGE_CURVE('',#207,#200,#162,.T.);
#241=EDGE_CURVE('',#210,#196,#41,.T.);
#243=EDGE_CURVE('',#196,#210,#46,.T.);
#247=EDGE_CURVE('',#199,#200,#51,.T.);
#266=EDGE_CURVE('',#195,#196,#60,.T.);
#268=EDGE_CURVE('',#195,#212,#84,.T.);
#270=EDGE_CURVE('',#212,#210,#64,.T.);
#288=EDGE_CURVE('',#212,#195,#79,.T.);
#307=EDGE_CURVE('',#188,#187,#69,.T.);
#309=EDGE_CURVE('',#187,#188,#74,.T.);
#330=EDGE_CURVE('',#190,#187,#88,.T.);
#332=EDGE_CURVE('',#190,#192,#112,.T.);
#334=EDGE_CURVE('',#192,#188,#92,.T.);
#354=EDGE_CURVE('',#192,#190,#107,.T.);
#372=EDGE_CURVE('',#179,#180,#97,.T.);
#374=EDGE_CURVE('',#180,#179,#102,.T.);
#396=EDGE_CURVE('',#184,#180,#116,.T.);
#398=EDGE_CURVE('',#184,#182,#125,.T.);
#400=EDGE_CURVE('',#182,#179,#120,.T.);
#418=EDGE_CURVE('',#182,#184,#130,.T.);
#441=EDGE_CURVE('',#204,#203,#135,.T.);
#443=EDGE_CURVE('',#203,#204,#140,.T.);
#460=EDGE_CURVE('',#175,#176,#149,.T.);
#462=EDGE_CURVE('',#204,#176,#144,.T.);
#465=EDGE_CURVE('',#203,#175,#158,.T.);
#483=EDGE_CURVE('',#176,#175,#154,.T.);
#520=EDGE_CURVE('',#207,#208,#172,.T.);
#553=(LENGTH_UNIT()NAMED_UNIT(*)SI_UNIT(.MILLI.,.METRE.));
#555=(NAMED_UNIT(*)PLANE_ANGLE_UNIT()SI_UNIT($,.RADIAN.));
#558=(NAMED_UNIT(*)SI_UNIT($,.STERADIAN.)SOLID_ANGLE_UNIT());
#561=ADVANCED_BREP_SHAPE_REPRESENTATION('',(#552),#560);
#569=PRODUCT_DEFINITION('design','',#568,#565);
#570=PRODUCT_DEFINITION_SHAPE('','SHAPE FOR CAD2453_SW0001.',#569);
#571=SHAPE_DEFINITION_REPRESENTATION(#570,#561);
ENDSEC;
END-ISO-10303-21;
