ISO-10303-21;
HEADER;
FILE_DESCRIPTION((''),'2;1');
FILE_NAME('CAD2454_SW0001','2016-09-16T',('cmozuch'),(''),
'PRO/ENGINEER BY PARAMETRIC TECHNOLOGY CORPORATION, 2015440',
'PRO/ENGINEER BY PARAMETRIC TECHNOLOGY CORPORATION, 2015440','');
FILE_SCHEMA(('CONFIG_CONTROL_DESIGN'));
ENDSEC;
DATA;
#33=DIRECTION('',(-7.222158495685E-1,0.E0,6.916677429460E-1));
#34=VECTOR('',#33,1.1E1);
#35=CARTESIAN_POINT('',(1.091003956605E1,3.110655019901E0,-1.517092124487E1));
#36=LINE('',#35,#34);
#37=CARTESIAN_POINT('',(5.040668449634E0,3.110655019901E0,-5.395928523756E0));
#38=DIRECTION('',(-7.222158495685E-1,0.E0,6.916677429460E-1));
#39=DIRECTION('',(6.916677429460E-1,0.E0,7.222158495685E-1));
#40=AXIS2_PLACEMENT_3D('',#37,#38,#39);
#42=CARTESIAN_POINT('',(5.040668449634E0,3.110655019901E0,-5.395928523756E0));
#43=DIRECTION('',(-7.222158495685E-1,0.E0,6.916677429460E-1));
#44=DIRECTION('',(-6.916677429460E-1,0.E0,-7.222158495685E-1));
#45=AXIS2_PLACEMENT_3D('',#42,#43,#44);
#47=CARTESIAN_POINT('',(5.040668449634E0,3.110655019901E0,-5.395928523756E0));
#48=DIRECTION('',(7.222158495685E-1,0.E0,-6.916677429460E-1));
#49=DIRECTION('',(-6.916677429460E-1,0.E0,-7.222158495685E-1));
#50=AXIS2_PLACEMENT_3D('',#47,#48,#49);
#52=CARTESIAN_POINT('',(5.040668449634E0,3.110655019901E0,-5.395928523756E0));
#53=DIRECTION('',(7.222158495685E-1,0.E0,-6.916677429460E-1));
#54=DIRECTION('',(6.916677429460E-1,0.E0,7.222158495685E-1));
#55=AXIS2_PLACEMENT_3D('',#52,#53,#54);
#57=DIRECTION('',(-7.222158495685E-1,0.E0,6.916677429460E-1));
#58=VECTOR('',#57,1.1E1);
#59=CARTESIAN_POINT('',(1.506004602373E1,3.110655019901E0,-1.083762614746E1));
#60=LINE('',#59,#58);
#61=CARTESIAN_POINT('',(1.298504279489E1,3.110655019901E0,-1.300427369616E1));
#62=DIRECTION('',(7.222158495685E-1,0.E0,-6.916677429460E-1));
#63=DIRECTION('',(-6.916677429460E-1,0.E0,-7.222158495685E-1));
#64=AXIS2_PLACEMENT_3D('',#61,#62,#63);
#66=CARTESIAN_POINT('',(1.298504279489E1,3.110655019901E0,-1.300427369616E1));
#67=DIRECTION('',(7.222158495685E-1,0.E0,-6.916677429460E-1));
#68=DIRECTION('',(6.916677429460E-1,0.E0,7.222158495685E-1));
#69=AXIS2_PLACEMENT_3D('',#66,#67,#68);
#71=CARTESIAN_POINT('',(1.298504279489E1,3.110655019901E0,-1.300427369616E1));
#72=DIRECTION('',(-7.222158495685E-1,0.E0,6.916677429460E-1));
#73=DIRECTION('',(-6.916677429460E-1,0.E0,-7.222158495685E-1));
#74=AXIS2_PLACEMENT_3D('',#71,#72,#73);
#76=CARTESIAN_POINT('',(1.298504279489E1,3.110655019901E0,-1.300427369616E1));
#77=DIRECTION('',(-7.222158495685E-1,0.E0,6.916677429460E-1));
#78=DIRECTION('',(6.916677429460E-1,0.E0,7.222158495685E-1));
#79=AXIS2_PLACEMENT_3D('',#76,#77,#78);
#81=DIRECTION('',(-7.222158495685E-1,0.E0,6.916677429460E-1));
#82=VECTOR('',#81,1.E1);
#83=CARTESIAN_POINT('',(1.160170730900E1,3.110655019901E0,-1.444870539530E1));
#84=LINE('',#83,#82);
#85=CARTESIAN_POINT('',(5.762884299203E0,3.110655019901E0,-6.087596266702E0));
#86=DIRECTION('',(7.222158495685E-1,0.E0,-6.916677429460E-1));
#87=DIRECTION('',(6.916677429460E-1,0.E0,7.222158495685E-1));
#88=AXIS2_PLACEMENT_3D('',#85,#86,#87);
#90=CARTESIAN_POINT('',(5.762884299203E0,3.110655019901E0,-6.087596266702E0));
#91=DIRECTION('',(7.222158495685E-1,0.E0,-6.916677429460E-1));
#92=DIRECTION('',(-6.916677429460E-1,0.E0,-7.222158495685E-1));
#93=AXIS2_PLACEMENT_3D('',#90,#91,#92);
#95=DIRECTION('',(-7.222158495685E-1,0.E0,6.916677429460E-1));
#96=VECTOR('',#95,1.E1);
#97=CARTESIAN_POINT('',(1.436837828078E1,3.110655019901E0,-1.155984199702E1));
#98=LINE('',#97,#96);
#99=DIRECTION('',(-7.222158495685E-1,0.E0,6.916677429460E-1));
#100=VECTOR('',#99,9.E0);
#101=CARTESIAN_POINT('',(3.657332963742E0,3.110655019901E0,-6.840360222893E0));
#102=LINE('',#101,#100);
#103=CARTESIAN_POINT('',(-1.459274196483E0,3.110655019901E0,8.290811627573E-1));
#104=DIRECTION('',(-7.222158495685E-1,0.E0,6.916677429460E-1));
#105=DIRECTION('',(-6.916677429460E-1,0.E0,-7.222158495685E-1));
#106=AXIS2_PLACEMENT_3D('',#103,#104,#105);
#108=CARTESIAN_POINT('',(-1.459274196483E0,3.110655019901E0,8.290811627573E-1));
#109=DIRECTION('',(-7.222158495685E-1,0.E0,6.916677429460E-1));
#110=DIRECTION('',(6.916677429460E-1,0.E0,7.222158495685E-1));
#111=AXIS2_PLACEMENT_3D('',#108,#109,#110);
#113=CARTESIAN_POINT('',(-1.459274196483E0,3.110655019901E0,8.290811627573E-1));
#114=DIRECTION('',(7.222158495685E-1,0.E0,-6.916677429460E-1));
#115=DIRECTION('',(-6.916677429460E-1,0.E0,-7.222158495685E-1));
#116=AXIS2_PLACEMENT_3D('',#113,#114,#115);
#118=CARTESIAN_POINT('',(-1.459274196483E0,3.110655019901E0,8.290811627573E-1));
#119=DIRECTION('',(7.222158495685E-1,0.E0,-6.916677429460E-1));
#120=DIRECTION('',(6.916677429460E-1,0.E0,7.222158495685E-1));
#121=AXIS2_PLACEMENT_3D('',#118,#119,#120);
#123=DIRECTION('',(-7.222158495685E-1,0.E0,6.916677429460E-1));
#124=VECTOR('',#123,9.E0);
#125=CARTESIAN_POINT('',(6.424003935526E0,3.110655019901E0,-3.951496824619E0));
#126=LINE('',#125,#124);
#127=DIRECTION('',(7.222158495685E-1,0.E0,-6.916677429460E-1));
#128=VECTOR('',#127,1.E0);
#129=CARTESIAN_POINT('',(-2.808026295228E0,3.110655019901E0,
-5.792397439013E-1));
#130=LINE('',#129,#128);
#131=DIRECTION('',(7.222158495685E-1,0.E0,-6.916677429460E-1));
#132=VECTOR('',#131,1.E0);
#133=CARTESIAN_POINT('',(-1.105220977383E-1,3.110655019901E0,2.237402069416E0));
#134=LINE('',#133,#132);
#135=CARTESIAN_POINT('',(-7.370583469144E-1,3.110655019901E0,
1.374134198114E-1));
#136=DIRECTION('',(-7.222158495685E-1,0.E0,6.916677429460E-1));
#137=DIRECTION('',(-6.916677429460E-1,0.E0,-7.222158495685E-1));
#138=AXIS2_PLACEMENT_3D('',#135,#136,#137);
#140=CARTESIAN_POINT('',(-7.370583469144E-1,3.110655019901E0,
1.374134198114E-1));
#141=DIRECTION('',(-7.222158495685E-1,0.E0,6.916677429460E-1));
#142=DIRECTION('',(6.916677429460E-1,0.E0,7.222158495685E-1));
#143=AXIS2_PLACEMENT_3D('',#140,#141,#142);
#145=CARTESIAN_POINT('',(-7.370583469144E-1,3.110655019901E0,
1.374134198114E-1));
#146=DIRECTION('',(7.222158495685E-1,0.E0,-6.916677429460E-1));
#147=DIRECTION('',(6.916677429460E-1,0.E0,7.222158495685E-1));
#148=AXIS2_PLACEMENT_3D('',#145,#146,#147);
#150=CARTESIAN_POINT('',(-7.370583469144E-1,3.110655019901E0,
1.374134198114E-1));
#151=DIRECTION('',(7.222158495685E-1,0.E0,-6.916677429460E-1));
#152=DIRECTION('',(-6.916677429460E-1,0.E0,-7.222158495685E-1));
#153=AXIS2_PLACEMENT_3D('',#150,#151,#152);
#155=DIRECTION('',(7.222158495685E-1,0.E0,-6.916677429460E-1));
#156=VECTOR('',#155,1.E0);
#157=CARTESIAN_POINT('',(-2.790734601654E0,3.110655019901E0,
-5.611843476621E-1));
#158=LINE('',#157,#156);
#159=DIRECTION('',(7.222158495685E-1,0.E0,-6.916677429460E-1));
#160=VECTOR('',#159,1.E0);
#161=CARTESIAN_POINT('',(-1.278137913120E-1,3.110655019901E0,2.219346673177E0));
#162=LINE('',#161,#160);
#163=CARTESIAN_POINT('',(-1.459274196483E0,3.110655019901E0,8.290811627573E-1));
#164=DIRECTION('',(-7.222158495685E-1,0.E0,6.916677429460E-1));
#165=DIRECTION('',(6.916677429460E-1,0.E0,7.222158495685E-1));
#166=AXIS2_PLACEMENT_3D('',#163,#164,#165);
#168=CARTESIAN_POINT('',(-1.459274196483E0,3.110655019901E0,8.290811627573E-1));
#169=DIRECTION('',(-7.222158495685E-1,0.E0,6.916677429460E-1));
#170=DIRECTION('',(-6.916677429460E-1,0.E0,-7.222158495685E-1));
#171=AXIS2_PLACEMENT_3D('',#168,#169,#170);
#173=CARTESIAN_POINT('',(-2.790734601654E0,3.110655019901E0,
-5.611843476621E-1));
#174=CARTESIAN_POINT('',(-1.278137913119E-1,3.110655019901E0,2.219346673177E0));
#175=VERTEX_POINT('',#173);
#176=VERTEX_POINT('',#174);
#177=CARTESIAN_POINT('',(5.944020582568E-1,3.110655019901E0,1.527678930231E0));
#178=VERTEX_POINT('',#177);
#179=CARTESIAN_POINT('',(7.146219785094E0,3.110655019901E0,-4.643164567565E0));
#180=CARTESIAN_POINT('',(4.379548813311E0,3.110655019901E0,-7.532027965840E0));
#181=VERTEX_POINT('',#179);
#182=VERTEX_POINT('',#180);
#183=CARTESIAN_POINT('',(1.436837828078E1,3.110655019901E0,-1.155984199702E1));
#184=VERTEX_POINT('',#183);
#185=CARTESIAN_POINT('',(-1.105220977383E-1,3.110655019901E0,2.237402069416E0));
#186=CARTESIAN_POINT('',(-2.808026295228E0,3.110655019901E0,
-5.792397439013E-1));
#187=VERTEX_POINT('',#185);
#188=VERTEX_POINT('',#186);
#189=CARTESIAN_POINT('',(6.116937518304E-1,3.110655019901E0,1.545734326470E0));
#190=VERTEX_POINT('',#189);
#191=CARTESIAN_POINT('',(1.506004602373E1,3.110655019901E0,-1.083762614746E1));
#192=CARTESIAN_POINT('',(1.091003956605E1,3.110655019901E0,-1.517092124487E1));
#193=VERTEX_POINT('',#191);
#194=VERTEX_POINT('',#192);
#195=CARTESIAN_POINT('',(-2.842609682375E0,3.110655019901E0,
-6.153505363798E-1));
#196=CARTESIAN_POINT('',(-7.593871059100E-2,3.110655019901E0,2.273512861894E0));
#197=VERTEX_POINT('',#195);
#198=VERTEX_POINT('',#196);
#199=CARTESIAN_POINT('',(6.424003935526E0,3.110655019901E0,-3.951496824619E0));
#200=CARTESIAN_POINT('',(3.657332963742E0,3.110655019901E0,-6.840360222894E0));
#201=VERTEX_POINT('',#199);
#202=VERTEX_POINT('',#200);
#203=CARTESIAN_POINT('',(2.965665220796E0,3.110655019901E0,-7.562576072462E0));
#204=CARTESIAN_POINT('',(7.115671678472E0,3.110655019901E0,-3.229280975051E0));
#205=VERTEX_POINT('',#203);
#206=VERTEX_POINT('',#204);
#207=CARTESIAN_POINT('',(-2.085810445659E0,3.110655019901E0,-1.270907486847E0));
#208=VERTEX_POINT('',#207);
#209=CARTESIAN_POINT('',(1.160170730900E1,3.110655019901E0,-1.444870539530E1));
#210=VERTEX_POINT('',#209);
#211=CARTESIAN_POINT('',(-2.068518752085E0,3.110655019901E0,-1.252852090608E0));
#212=VERTEX_POINT('',#211);
#213=CARTESIAN_POINT('',(5.040668449634E0,3.110655019901E0,-5.395928523756E0));
#214=DIRECTION('',(7.222158495685E-1,0.E0,-6.916677429460E-1));
#215=DIRECTION('',(-6.916677429460E-1,0.E0,-7.222158495685E-1));
#216=AXIS2_PLACEMENT_3D('',#213,#214,#215);
#217=CYLINDRICAL_SURFACE('',#216,3.E0);
#219=ORIENTED_EDGE('',*,*,#218,.T.);
#221=ORIENTED_EDGE('',*,*,#220,.F.);
#223=ORIENTED_EDGE('',*,*,#222,.T.);
#225=ORIENTED_EDGE('',*,*,#224,.T.);
#226=EDGE_LOOP('',(#219,#221,#223,#225));
#227=FACE_OUTER_BOUND('',#226,.F.);
#228=ADVANCED_FACE('',(#227),#217,.T.);
#229=FILL_AREA_STYLE_COLOUR('',#14);
#230=FILL_AREA_STYLE('',(#229));
#231=SURFACE_STYLE_FILL_AREA(#230);
#232=SURFACE_SIDE_STYLE('',(#231));
#233=SURFACE_STYLE_USAGE(.POSITIVE.,#232);
#234=PRESENTATION_STYLE_ASSIGNMENT((#233));
#235=STYLED_ITEM('',(#234),#228);
#236=CARTESIAN_POINT('',(2.882665091643E0,6.233224740801E0,-7.649241974410E0));
#237=DIRECTION('',(7.222158495685E-1,0.E0,-6.916677429460E-1));
#238=DIRECTION('',(6.916677429460E-1,0.E0,7.222158495685E-1));
#239=AXIS2_PLACEMENT_3D('',#236,#237,#238);
#240=PLANE('',#239);
#241=ORIENTED_EDGE('',*,*,#218,.F.);
#243=ORIENTED_EDGE('',*,*,#242,.F.);
#244=EDGE_LOOP('',(#241,#243));
#245=FACE_OUTER_BOUND('',#244,.F.);
#247=ORIENTED_EDGE('',*,*,#246,.F.);
#249=ORIENTED_EDGE('',*,*,#248,.F.);
#250=EDGE_LOOP('',(#247,#249));
#251=FACE_BOUND('',#250,.F.);
#252=ADVANCED_FACE('',(#245,#251),#240,.F.);
#253=FILL_AREA_STYLE_COLOUR('',#14);
#254=FILL_AREA_STYLE('',(#253));
#255=SURFACE_STYLE_FILL_AREA(#254);
#256=SURFACE_SIDE_STYLE('',(#255));
#257=SURFACE_STYLE_USAGE(.POSITIVE.,#256);
#258=PRESENTATION_STYLE_ASSIGNMENT((#257));
#259=STYLED_ITEM('',(#258),#252);
#260=CARTESIAN_POINT('',(5.040668449634E0,3.110655019901E0,-5.395928523756E0));
#261=DIRECTION('',(7.222158495685E-1,0.E0,-6.916677429460E-1));
#262=DIRECTION('',(-6.916677429460E-1,0.E0,-7.222158495685E-1));
#263=AXIS2_PLACEMENT_3D('',#260,#261,#262);
#264=CYLINDRICAL_SURFACE('',#263,3.E0);
#265=ORIENTED_EDGE('',*,*,#224,.F.);
#267=ORIENTED_EDGE('',*,*,#266,.T.);
#268=ORIENTED_EDGE('',*,*,#220,.T.);
#269=ORIENTED_EDGE('',*,*,#242,.T.);
#270=EDGE_LOOP('',(#265,#267,#268,#269));
#271=FACE_OUTER_BOUND('',#270,.F.);
#272=ADVANCED_FACE('',(#271),#264,.T.);
#273=FILL_AREA_STYLE_COLOUR('',#14);
#274=FILL_AREA_STYLE('',(#273));
#275=SURFACE_STYLE_FILL_AREA(#274);
#276=SURFACE_SIDE_STYLE('',(#275));
#277=SURFACE_STYLE_USAGE(.POSITIVE.,#276);
#278=PRESENTATION_STYLE_ASSIGNMENT((#277));
#279=STYLED_ITEM('',(#278),#272);
#280=CARTESIAN_POINT('',(1.082703943690E1,6.233224740801E0,-1.525758714682E1));
#281=DIRECTION('',(7.222158495685E-1,0.E0,-6.916677429460E-1));
#282=DIRECTION('',(6.916677429460E-1,0.E0,7.222158495685E-1));
#283=AXIS2_PLACEMENT_3D('',#280,#281,#282);
#284=PLANE('',#283);
#285=ORIENTED_EDGE('',*,*,#222,.F.);
#286=ORIENTED_EDGE('',*,*,#266,.F.);
#287=EDGE_LOOP('',(#285,#286));
#288=FACE_OUTER_BOUND('',#287,.F.);
#290=ORIENTED_EDGE('',*,*,#289,.F.);
#292=ORIENTED_EDGE('',*,*,#291,.F.);
#293=EDGE_LOOP('',(#290,#292));
#294=FACE_BOUND('',#293,.F.);
#295=ADVANCED_FACE('',(#288,#294),#284,.T.);
#296=FILL_AREA_STYLE_COLOUR('',#14);
#297=FILL_AREA_STYLE('',(#296));
#298=SURFACE_STYLE_FILL_AREA(#297);
#299=SURFACE_SIDE_STYLE('',(#298));
#300=SURFACE_STYLE_USAGE(.POSITIVE.,#299);
#301=PRESENTATION_STYLE_ASSIGNMENT((#300));
#302=STYLED_ITEM('',(#301),#295);
#303=CARTESIAN_POINT('',(5.762884299203E0,3.110655019901E0,-6.087596266702E0));
#304=DIRECTION('',(7.222158495685E-1,0.E0,-6.916677429460E-1));
#305=DIRECTION('',(-6.916677429460E-1,0.E0,-7.222158495685E-1));
#306=AXIS2_PLACEMENT_3D('',#303,#304,#305);
#307=CYLINDRICAL_SURFACE('',#306,2.E0);
#309=ORIENTED_EDGE('',*,*,#308,.T.);
#311=ORIENTED_EDGE('',*,*,#310,.F.);
#312=ORIENTED_EDGE('',*,*,#289,.T.);
#314=ORIENTED_EDGE('',*,*,#313,.T.);
#315=EDGE_LOOP('',(#309,#311,#312,#314));
#316=FACE_OUTER_BOUND('',#315,.F.);
#317=ADVANCED_FACE('',(#316),#307,.F.);
#318=FILL_AREA_STYLE_COLOUR('',#14);
#319=FILL_AREA_STYLE('',(#318));
#320=SURFACE_STYLE_FILL_AREA(#319);
#321=SURFACE_SIDE_STYLE('',(#320));
#322=SURFACE_STYLE_USAGE(.POSITIVE.,#321);
#323=PRESENTATION_STYLE_ASSIGNMENT((#322));
#324=STYLED_ITEM('',(#323),#317);
#325=CARTESIAN_POINT('',(7.201553204530E0,5.190655019901E0,-4.585387299600E0));
#326=DIRECTION('',(7.222158495685E-1,0.E0,-6.916677429460E-1));
#327=DIRECTION('',(0.E0,-1.E0,0.E0));
#328=AXIS2_PLACEMENT_3D('',#325,#326,#327);
#329=PLANE('',#328);
#330=ORIENTED_EDGE('',*,*,#308,.F.);
#332=ORIENTED_EDGE('',*,*,#331,.F.);
#333=EDGE_LOOP('',(#330,#332));
#334=FACE_OUTER_BOUND('',#333,.F.);
#335=ADVANCED_FACE('',(#334),#329,.T.);
#336=FILL_AREA_STYLE_COLOUR('',#14);
#337=FILL_AREA_STYLE('',(#336));
#338=SURFACE_STYLE_FILL_AREA(#337);
#339=SURFACE_SIDE_STYLE('',(#338));
#340=SURFACE_STYLE_USAGE(.POSITIVE.,#339);
#341=PRESENTATION_STYLE_ASSIGNMENT((#340));
#342=STYLED_ITEM('',(#341),#335);
#343=CARTESIAN_POINT('',(5.762884299203E0,3.110655019901E0,-6.087596266702E0));
#344=DIRECTION('',(7.222158495685E-1,0.E0,-6.916677429460E-1));
#345=DIRECTION('',(-6.916677429460E-1,0.E0,-7.222158495685E-1));
#346=AXIS2_PLACEMENT_3D('',#343,#344,#345);
#347=CYLINDRICAL_SURFACE('',#346,2.E0);
#348=ORIENTED_EDGE('',*,*,#313,.F.);
#349=ORIENTED_EDGE('',*,*,#291,.T.);
#350=ORIENTED_EDGE('',*,*,#310,.T.);
#351=ORIENTED_EDGE('',*,*,#331,.T.);
#352=EDGE_LOOP('',(#348,#349,#350,#351));
#353=FACE_OUTER_BOUND('',#352,.F.);
#354=ADVANCED_FACE('',(#353),#347,.F.);
#355=FILL_AREA_STYLE_COLOUR('',#14);
#356=FILL_AREA_STYLE('',(#355));
#357=SURFACE_STYLE_FILL_AREA(#356);
#358=SURFACE_SIDE_STYLE('',(#357));
#359=SURFACE_STYLE_USAGE(.POSITIVE.,#358);
#360=PRESENTATION_STYLE_ASSIGNMENT((#359));
#361=STYLED_ITEM('',(#360),#354);
#362=CARTESIAN_POINT('',(-1.459274196483E0,3.110655019901E0,8.290811627573E-1));
#363=DIRECTION('',(7.222158495685E-1,0.E0,-6.916677429460E-1));
#364=DIRECTION('',(-6.916677429460E-1,0.E0,-7.222158495685E-1));
#365=AXIS2_PLACEMENT_3D('',#362,#363,#364);
#366=CYLINDRICAL_SURFACE('',#365,2.E0);
#368=ORIENTED_EDGE('',*,*,#367,.T.);
#370=ORIENTED_EDGE('',*,*,#369,.F.);
#371=ORIENTED_EDGE('',*,*,#246,.T.);
#373=ORIENTED_EDGE('',*,*,#372,.T.);
#374=EDGE_LOOP('',(#368,#370,#371,#373));
#375=FACE_OUTER_BOUND('',#374,.F.);
#376=ADVANCED_FACE('',(#375),#366,.T.);
#377=FILL_AREA_STYLE_COLOUR('',#14);
#378=FILL_AREA_STYLE('',(#377));
#379=SURFACE_STYLE_FILL_AREA(#378);
#380=SURFACE_SIDE_STYLE('',(#379));
#381=SURFACE_STYLE_USAGE(.POSITIVE.,#380);
#382=PRESENTATION_STYLE_ASSIGNMENT((#381));
#383=STYLED_ITEM('',(#382),#376);
#384=CARTESIAN_POINT('',(-2.897943101811E0,5.192739034104E0,
-6.731278043453E-1));
#385=DIRECTION('',(7.222158495685E-1,0.E0,-6.916677429460E-1));
#386=DIRECTION('',(6.916677429460E-1,0.E0,7.222158495685E-1));
#387=AXIS2_PLACEMENT_3D('',#384,#385,#386);
#388=PLANE('',#387);
#390=ORIENTED_EDGE('',*,*,#389,.F.);
#391=ORIENTED_EDGE('',*,*,#367,.F.);
#392=EDGE_LOOP('',(#390,#391));
#393=FACE_OUTER_BOUND('',#392,.F.);
#395=ORIENTED_EDGE('',*,*,#394,.F.);
#397=ORIENTED_EDGE('',*,*,#396,.F.);
#398=EDGE_LOOP('',(#395,#397));
#399=FACE_BOUND('',#398,.F.);
#400=ADVANCED_FACE('',(#393,#399),#388,.F.);
#401=FILL_AREA_STYLE_COLOUR('',#14);
#402=FILL_AREA_STYLE('',(#401));
#403=SURFACE_STYLE_FILL_AREA(#402);
#404=SURFACE_SIDE_STYLE('',(#403));
#405=SURFACE_STYLE_USAGE(.POSITIVE.,#404);
#406=PRESENTATION_STYLE_ASSIGNMENT((#405));
#407=STYLED_ITEM('',(#406),#400);
#408=CARTESIAN_POINT('',(-1.459274196483E0,3.110655019901E0,8.290811627573E-1));
#409=DIRECTION('',(7.222158495685E-1,0.E0,-6.916677429460E-1));
#410=DIRECTION('',(-6.916677429460E-1,0.E0,-7.222158495685E-1));
#411=AXIS2_PLACEMENT_3D('',#408,#409,#410);
#412=CYLINDRICAL_SURFACE('',#411,2.E0);
#413=ORIENTED_EDGE('',*,*,#372,.F.);
#414=ORIENTED_EDGE('',*,*,#248,.T.);
#415=ORIENTED_EDGE('',*,*,#369,.T.);
#416=ORIENTED_EDGE('',*,*,#389,.T.);
#417=EDGE_LOOP('',(#413,#414,#415,#416));
#418=FACE_OUTER_BOUND('',#417,.F.);
#419=ADVANCED_FACE('',(#418),#412,.T.);
#420=FILL_AREA_STYLE_COLOUR('',#14);
#421=FILL_AREA_STYLE('',(#420));
#422=SURFACE_STYLE_FILL_AREA(#421);
#423=SURFACE_SIDE_STYLE('',(#422));
#424=SURFACE_STYLE_USAGE(.POSITIVE.,#423);
#425=PRESENTATION_STYLE_ASSIGNMENT((#424));
#426=STYLED_ITEM('',(#425),#419);
#427=CARTESIAN_POINT('',(-7.370583469142E-1,3.110655019901E0,
1.374134198111E-1));
#428=DIRECTION('',(-7.222158495685E-1,0.E0,6.916677429460E-1));
#429=DIRECTION('',(6.916677429460E-1,0.E0,7.222158495685E-1));
#430=AXIS2_PLACEMENT_3D('',#427,#428,#429);
#431=CYLINDRICAL_SURFACE('',#430,1.95E0);
#433=ORIENTED_EDGE('',*,*,#432,.F.);
#434=ORIENTED_EDGE('',*,*,#394,.T.);
#436=ORIENTED_EDGE('',*,*,#435,.T.);
#438=ORIENTED_EDGE('',*,*,#437,.T.);
#439=EDGE_LOOP('',(#433,#434,#436,#438));
#440=FACE_OUTER_BOUND('',#439,.F.);
#441=ADVANCED_FACE('',(#440),#431,.F.);
#442=FILL_AREA_STYLE_COLOUR('',#14);
#443=FILL_AREA_STYLE('',(#442));
#444=SURFACE_STYLE_FILL_AREA(#443);
#445=SURFACE_SIDE_STYLE('',(#444));
#446=SURFACE_STYLE_USAGE(.POSITIVE.,#445);
#447=PRESENTATION_STYLE_ASSIGNMENT((#446));
#448=STYLED_ITEM('',(#447),#441);
#449=CARTESIAN_POINT('',(-7.370583469142E-1,3.110655019901E0,
1.374134198111E-1));
#450=DIRECTION('',(-7.222158495685E-1,0.E0,6.916677429460E-1));
#451=DIRECTION('',(6.916677429460E-1,0.E0,7.222158495685E-1));
#452=AXIS2_PLACEMENT_3D('',#449,#450,#451);
#453=CYLINDRICAL_SURFACE('',#452,1.95E0);
#455=ORIENTED_EDGE('',*,*,#454,.T.);
#456=ORIENTED_EDGE('',*,*,#435,.F.);
#457=ORIENTED_EDGE('',*,*,#396,.T.);
#458=ORIENTED_EDGE('',*,*,#432,.T.);
#459=EDGE_LOOP('',(#455,#456,#457,#458));
#460=FACE_OUTER_BOUND('',#459,.F.);
#461=ADVANCED_FACE('',(#460),#453,.F.);
#462=FILL_AREA_STYLE_COLOUR('',#14);
#463=FILL_AREA_STYLE('',(#462));
#464=SURFACE_STYLE_FILL_AREA(#463);
#465=SURFACE_SIDE_STYLE('',(#464));
#466=SURFACE_STYLE_USAGE(.POSITIVE.,#465);
#467=PRESENTATION_STYLE_ASSIGNMENT((#466));
#468=STYLED_ITEM('',(#467),#461);
#469=CARTESIAN_POINT('',(6.656438357800E-1,1.082655019901E0,1.602067162736E0));
#470=DIRECTION('',(-7.222158495685E-1,0.E0,6.916677429460E-1));
#471=DIRECTION('',(0.E0,1.E0,0.E0));
#472=AXIS2_PLACEMENT_3D('',#469,#470,#471);
#473=PLANE('',#472);
#474=ORIENTED_EDGE('',*,*,#454,.F.);
#475=ORIENTED_EDGE('',*,*,#437,.F.);
#476=EDGE_LOOP('',(#474,#475));
#477=FACE_OUTER_BOUND('',#476,.F.);
#479=ORIENTED_EDGE('',*,*,#478,.F.);
#481=ORIENTED_EDGE('',*,*,#480,.F.);
#482=EDGE_LOOP('',(#479,#481));
#483=FACE_BOUND('',#482,.F.);
#484=ADVANCED_FACE('',(#477,#483),#473,.T.);
#485=FILL_AREA_STYLE_COLOUR('',#14);
#486=FILL_AREA_STYLE('',(#485));
#487=SURFACE_STYLE_FILL_AREA(#486);
#488=SURFACE_SIDE_STYLE('',(#487));
#489=SURFACE_STYLE_USAGE(.POSITIVE.,#488);
#490=PRESENTATION_STYLE_ASSIGNMENT((#489));
#491=STYLED_ITEM('',(#490),#484);
#492=CARTESIAN_POINT('',(-7.370583469142E-1,3.110655019901E0,
1.374134198111E-1));
#493=DIRECTION('',(-7.222158495685E-1,0.E0,6.916677429460E-1));
#494=DIRECTION('',(6.916677429460E-1,0.E0,7.222158495685E-1));
#495=AXIS2_PLACEMENT_3D('',#492,#493,#494);
#496=CYLINDRICAL_SURFACE('',#495,1.925E0);
#498=ORIENTED_EDGE('',*,*,#497,.F.);
#500=ORIENTED_EDGE('',*,*,#499,.T.);
#502=ORIENTED_EDGE('',*,*,#501,.T.);
#503=ORIENTED_EDGE('',*,*,#478,.T.);
#504=EDGE_LOOP('',(#498,#500,#502,#503));
#505=FACE_OUTER_BOUND('',#504,.F.);
#506=ADVANCED_FACE('',(#505),#496,.T.);
#507=FILL_AREA_STYLE_COLOUR('',#14);
#508=FILL_AREA_STYLE('',(#507));
#509=SURFACE_STYLE_FILL_AREA(#508);
#510=SURFACE_SIDE_STYLE('',(#509));
#511=SURFACE_STYLE_USAGE(.POSITIVE.,#510);
#512=PRESENTATION_STYLE_ASSIGNMENT((#511));
#513=STYLED_ITEM('',(#512),#506);
#514=CARTESIAN_POINT('',(-7.370583469142E-1,3.110655019901E0,
1.374134198111E-1));
#515=DIRECTION('',(-7.222158495685E-1,0.E0,6.916677429460E-1));
#516=DIRECTION('',(6.916677429460E-1,0.E0,7.222158495685E-1));
#517=AXIS2_PLACEMENT_3D('',#514,#515,#516);
#518=CYLINDRICAL_SURFACE('',#517,1.925E0);
#519=ORIENTED_EDGE('',*,*,#480,.T.);
#520=ORIENTED_EDGE('',*,*,#501,.F.);
#522=ORIENTED_EDGE('',*,*,#521,.T.);
#523=ORIENTED_EDGE('',*,*,#497,.T.);
#524=EDGE_LOOP('',(#519,#520,#522,#523));
#525=FACE_OUTER_BOUND('',#524,.F.);
#526=ADVANCED_FACE('',(#525),#518,.T.);
#527=FILL_AREA_STYLE_COLOUR('',#14);
#528=FILL_AREA_STYLE('',(#527));
#529=SURFACE_STYLE_FILL_AREA(#528);
#530=SURFACE_SIDE_STYLE('',(#529));
#531=SURFACE_STYLE_USAGE(.POSITIVE.,#530);
#532=PRESENTATION_STYLE_ASSIGNMENT((#531));
#533=STYLED_ITEM('',(#532),#526);
#534=CARTESIAN_POINT('',(-2.897943101811E0,5.192739034104E0,
-6.731278043453E-1));
#535=DIRECTION('',(7.222158495685E-1,0.E0,-6.916677429460E-1));
#536=DIRECTION('',(6.916677429460E-1,0.E0,7.222158495685E-1));
#537=AXIS2_PLACEMENT_3D('',#534,#535,#536);
#538=PLANE('',#537);
#539=ORIENTED_EDGE('',*,*,#521,.F.);
#540=ORIENTED_EDGE('',*,*,#499,.F.);
#541=EDGE_LOOP('',(#539,#540));
#542=FACE_OUTER_BOUND('',#541,.F.);
#543=ADVANCED_FACE('',(#542),#538,.F.);
#544=FILL_AREA_STYLE_COLOUR('',#14);
#545=FILL_AREA_STYLE('',(#544));
#546=SURFACE_STYLE_FILL_AREA(#545);
#547=SURFACE_SIDE_STYLE('',(#546));
#548=SURFACE_STYLE_USAGE(.POSITIVE.,#547);
#549=PRESENTATION_STYLE_ASSIGNMENT((#548));
#550=STYLED_ITEM('',(#549),#543);
#551=CLOSED_SHELL('',(#228,#252,#272,#295,#317,#335,#354,#376,#400,#419,#441,
#461,#484,#506,#526,#543));
#552=MANIFOLD_SOLID_BREP('',#551);
#554=DIMENSIONAL_EXPONENTS(0.E0,0.E0,0.E0,0.E0,0.E0,0.E0,0.E0);
#556=PLANE_ANGLE_MEASURE_WITH_UNIT(PLANE_ANGLE_MEASURE(1.745329251994E-2),#555);
#557=(CONVERSION_BASED_UNIT('DEGREE',#556)NAMED_UNIT(*)PLANE_ANGLE_UNIT());
#559=UNCERTAINTY_MEASURE_WITH_UNIT(LENGTH_MEASURE(2.172469195996E-3),#553,
'closure',
'Maximum model space distance between geometric entities at asserted connectivities');
#560=(GEOMETRIC_REPRESENTATION_CONTEXT(3)GLOBAL_UNCERTAINTY_ASSIGNED_CONTEXT((
#559))GLOBAL_UNIT_ASSIGNED_CONTEXT((#553,#557,#558))REPRESENTATION_CONTEXT
('ID1','3'));
#562=MECHANICAL_DESIGN_GEOMETRIC_PRESENTATION_REPRESENTATION('',(#235,#259,#279,
#302,#324,#342,#361,#383,#407,#426,#448,#468,#491,#513,#533,#550),#560);
#563=APPLICATION_CONTEXT(
'CONFIGURATION CONTROLLED 3D DESIGNS OF MECHANICAL PARTS AND ASSEMBLIES');
#564=APPLICATION_PROTOCOL_DEFINITION('international standard',
'config_control_design',1994,#563);
#565=DESIGN_CONTEXT('',#563,'design');
#566=MECHANICAL_CONTEXT('',#563,'mechanical');
#567=PRODUCT('CAD2454_SW0001','CAD2454_SW0001','NOT SPECIFIED',(#566));
#568=PRODUCT_DEFINITION_FORMATION_WITH_SPECIFIED_SOURCE('1','LAST_VERSION',#567,
.MADE.);
#572=PRODUCT_CATEGORY('part','');
#573=PRODUCT_RELATED_PRODUCT_CATEGORY('detail','',(#567));
#574=PRODUCT_CATEGORY_RELATIONSHIP('','',#572,#573);
#575=SECURITY_CLASSIFICATION_LEVEL('unclassified');
#576=SECURITY_CLASSIFICATION('','',#575);
#577=CC_DESIGN_SECURITY_CLASSIFICATION(#576,(#568));
#578=APPROVAL_STATUS('approved');
#579=APPROVAL(#578,'');
#580=CC_DESIGN_APPROVAL(#579,(#576,#568,#569));
#581=CALENDAR_DATE(116,16,9);
#582=COORDINATED_UNIVERSAL_TIME_OFFSET(2,0,.AHEAD.);
#583=LOCAL_TIME(8,56,4.1E1,#582);
#584=DATE_AND_TIME(#581,#583);
#585=APPROVAL_DATE_TIME(#584,#579);
#586=DATE_TIME_ROLE('creation_date');
#587=CC_DESIGN_DATE_AND_TIME_ASSIGNMENT(#584,#586,(#569));
#588=DATE_TIME_ROLE('classification_date');
#589=CC_DESIGN_DATE_AND_TIME_ASSIGNMENT(#584,#588,(#576));
#590=PERSON('UNSPECIFIED','UNSPECIFIED',$,$,$,$);
#591=ORGANIZATION('UNSPECIFIED','UNSPECIFIED','UNSPECIFIED');
#592=PERSON_AND_ORGANIZATION(#590,#591);
#593=APPROVAL_ROLE('approver');
#594=APPROVAL_PERSON_ORGANIZATION(#592,#579,#593);
#595=PERSON_AND_ORGANIZATION_ROLE('creator');
#596=CC_DESIGN_PERSON_AND_ORGANIZATION_ASSIGNMENT(#592,#595,(#568,#569));
#597=PERSON_AND_ORGANIZATION_ROLE('design_supplier');
#598=CC_DESIGN_PERSON_AND_ORGANIZATION_ASSIGNMENT(#592,#597,(#568));
#599=PERSON_AND_ORGANIZATION_ROLE('classification_officer');
#600=CC_DESIGN_PERSON_AND_ORGANIZATION_ASSIGNMENT(#592,#599,(#576));
#601=PERSON_AND_ORGANIZATION_ROLE('design_owner');
#602=CC_DESIGN_PERSON_AND_ORGANIZATION_ASSIGNMENT(#592,#601,(#567));
#1=COLOUR_RGB('',0.E0,0.E0,1.96E-1);
#2=COLOUR_RGB('',0.E0,0.E0,3.14E-1);
#3=COLOUR_RGB('',0.E0,1.96E-1,0.E0);
#4=COLOUR_RGB('',0.E0,3.14E-1,0.E0);
#5=COLOUR_RGB('',7.8E-2,7.8E-2,7.8E-2);
#6=COLOUR_RGB('',1.18E-1,1.18E-1,4.71E-1);
#7=COLOUR_RGB('',1.57E-1,1.57E-1,1.57E-1);
#8=COLOUR_RGB('',1.96E-1,0.E0,0.E0);
#9=COLOUR_RGB('',1.96E-1,0.E0,1.96E-1);
#10=COLOUR_RGB('',1.96E-1,5.88E-1,1.96E-1);
#11=COLOUR_RGB('',2.35E-1,2.35E-1,2.35E-1);
#12=COLOUR_RGB('',2.35E-1,2.35E-1,5.88E-1);
#13=COLOUR_RGB('',3.14E-1,3.14E-1,3.14E-1);
#14=COLOUR_RGB('',3.27543E-1,1.E0,6.33116E-1);
#15=COLOUR_RGB('',3.92E-1,0.E0,0.E0);
#16=COLOUR_RGB('',3.92E-1,0.E0,3.92E-1);
#17=COLOUR_RGB('',3.92E-1,3.92E-1,3.92E-1);
#18=COLOUR_RGB('',3.92E-1,3.92E-1,8.63E-1);
#19=COLOUR_RGB('',3.92E-1,5.88E-1,3.92E-1);
#20=COLOUR_RGB('',3.92E-1,5.88E-1,8.63E-1);
#21=COLOUR_RGB('',5.01961E-1,1.E0,5.01961E-1);
#22=COLOUR_RGB('',5.5E-1,5.6E-1,7.E-1);
#23=COLOUR_RGB('',5.88E-1,5.88E-1,5.88E-1);
#24=COLOUR_RGB('',5.88E-1,7.84E-1,5.88E-1);
#25=COLOUR_RGB('',6.2E-1,3.1E-1,6.5E-1);
#26=COLOUR_RGB('',6.8E-1,8.5E-1,1.E0);
#27=COLOUR_RGB('',6.952E-1,7.426E-1,7.9E-1);
#28=COLOUR_RGB('',9.8E-1,3.92E-1,0.E0);
#29=COLOUR_RGB('',9.8E-1,5.88E-1,0.E0);
#30=COLOUR_RGB('',9.8E-1,7.84E-1,0.E0);
#31=COLOUR_RGB('',1.E0,3.7E-1,3.8E-1);
#32=DRAUGHTING_PRE_DEFINED_COLOUR('white');
#41=CIRCLE('',#40,3.E0);
#46=CIRCLE('',#45,3.E0);
#51=CIRCLE('',#50,2.E0);
#56=CIRCLE('',#55,2.E0);
#65=CIRCLE('',#64,3.E0);
#70=CIRCLE('',#69,3.E0);
#75=CIRCLE('',#74,2.E0);
#80=CIRCLE('',#79,2.E0);
#89=CIRCLE('',#88,2.E0);
#94=CIRCLE('',#93,2.E0);
#107=CIRCLE('',#106,2.E0);
#112=CIRCLE('',#111,2.E0);
#117=CIRCLE('',#116,1.95E0);
#122=CIRCLE('',#121,1.95E0);
#139=CIRCLE('',#138,1.95E0);
#144=CIRCLE('',#143,1.95E0);
#149=CIRCLE('',#148,1.925E0);
#154=CIRCLE('',#153,1.925E0);
#167=CIRCLE('',#166,1.925E0);
#172=CIRCLE('',#171,1.925E0);
#218=EDGE_CURVE('',#206,#205,#41,.T.);
#220=EDGE_CURVE('',#194,#205,#36,.T.);
#222=EDGE_CURVE('',#194,#193,#65,.T.);
#224=EDGE_CURVE('',#193,#206,#60,.T.);
#242=EDGE_CURVE('',#205,#206,#46,.T.);
#246=EDGE_CURVE('',#202,#201,#51,.T.);
#248=EDGE_CURVE('',#201,#202,#56,.T.);
#266=EDGE_CURVE('',#193,#194,#70,.T.);
#289=EDGE_CURVE('',#210,#184,#75,.T.);
#291=EDGE_CURVE('',#184,#210,#80,.T.);
#308=EDGE_CURVE('',#181,#182,#89,.T.);
#310=EDGE_CURVE('',#210,#182,#84,.T.);
#313=EDGE_CURVE('',#184,#181,#98,.T.);
#331=EDGE_CURVE('',#182,#181,#94,.T.);
#367=EDGE_CURVE('',#198,#197,#112,.T.);
#369=EDGE_CURVE('',#202,#197,#102,.T.);
#372=EDGE_CURVE('',#201,#198,#126,.T.);
#389=EDGE_CURVE('',#197,#198,#107,.T.);
#394=EDGE_CURVE('',#188,#187,#117,.T.);
#396=EDGE_CURVE('',#187,#188,#122,.T.);
#432=EDGE_CURVE('',#188,#208,#130,.T.);
#435=EDGE_CURVE('',#187,#190,#134,.T.);
#437=EDGE_CURVE('',#190,#208,#144,.T.);
#454=EDGE_CURVE('',#208,#190,#139,.T.);
#478=EDGE_CURVE('',#178,#212,#149,.T.);
#480=EDGE_CURVE('',#212,#178,#154,.T.);
#497=EDGE_CURVE('',#175,#212,#158,.T.);
#499=EDGE_CURVE('',#175,#176,#172,.T.);
#501=EDGE_CURVE('',#176,#178,#162,.T.);
#521=EDGE_CURVE('',#176,#175,#167,.T.);
#553=(LENGTH_UNIT()NAMED_UNIT(*)SI_UNIT(.MILLI.,.METRE.));
#555=(NAMED_UNIT(*)PLANE_ANGLE_UNIT()SI_UNIT($,.RADIAN.));
#558=(NAMED_UNIT(*)SI_UNIT($,.STERADIAN.)SOLID_ANGLE_UNIT());
#561=ADVANCED_BREP_SHAPE_REPRESENTATION('',(#552),#560);
#569=PRODUCT_DEFINITION('design','',#568,#565);
#570=PRODUCT_DEFINITION_SHAPE('','SHAPE FOR CAD2454_SW0001.',#569);
#571=SHAPE_DEFINITION_REPRESENTATION(#570,#561);
ENDSEC;
END-ISO-10303-21;
