ISO-10303-21;
HEADER;
FILE_DESCRIPTION((''),'2;1');
FILE_NAME('DBCAD2608_REF-MH20','2017-06-08T',('cmozuch'),(''),
'PRO/ENGINEER BY PARAMETRIC TECHNOLOGY CORPORATION, 2015440',
'PRO/ENGINEER BY PARAMETRIC TECHNOLOGY CORPORATION, 2015440','');
FILE_SCHEMA(('CONFIG_CONTROL_DESIGN'));
ENDSEC;
DATA;
#64=DIRECTION('',(0.E0,7.894919286227E-14,1.E0));
#65=VECTOR('',#64,7.499999999997E-2);
#66=CARTESIAN_POINT('',(1.025E1,0.E0,7.025E0));
#67=LINE('',#66,#65);
#68=DIRECTION('',(0.E0,0.E0,-1.E0));
#69=VECTOR('',#68,7.499999999997E-2);
#70=CARTESIAN_POINT('',(-1.025E1,0.E0,7.1E0));
#71=LINE('',#70,#69);
#72=CARTESIAN_POINT('',(0.E0,0.E0,7.1E0));
#73=DIRECTION('',(0.E0,0.E0,1.E0));
#74=DIRECTION('',(-1.E0,0.E0,0.E0));
#75=AXIS2_PLACEMENT_3D('',#72,#73,#74);
#77=CARTESIAN_POINT('',(0.E0,0.E0,7.1E0));
#78=DIRECTION('',(0.E0,0.E0,1.E0));
#79=DIRECTION('',(1.E0,0.E0,0.E0));
#80=AXIS2_PLACEMENT_3D('',#77,#78,#79);
#82=CARTESIAN_POINT('',(0.E0,0.E0,7.1E0));
#83=DIRECTION('',(0.E0,0.E0,-1.E0));
#84=DIRECTION('',(-1.E0,0.E0,0.E0));
#85=AXIS2_PLACEMENT_3D('',#82,#83,#84);
#87=CARTESIAN_POINT('',(0.E0,0.E0,7.1E0));
#88=DIRECTION('',(0.E0,0.E0,-1.E0));
#89=DIRECTION('',(1.E0,0.E0,0.E0));
#90=AXIS2_PLACEMENT_3D('',#87,#88,#89);
#92=DIRECTION('',(0.E0,0.E0,-1.E0));
#93=VECTOR('',#92,3.2E0);
#94=CARTESIAN_POINT('',(1.2E1,0.E0,7.1E0));
#95=LINE('',#94,#93);
#96=DIRECTION('',(0.E0,0.E0,1.E0));
#97=VECTOR('',#96,3.2E0);
#98=CARTESIAN_POINT('',(-1.2E1,0.E0,3.9E0));
#99=LINE('',#98,#97);
#100=CARTESIAN_POINT('',(0.E0,0.E0,3.9E0));
#101=DIRECTION('',(0.E0,0.E0,1.E0));
#102=DIRECTION('',(-1.E0,0.E0,0.E0));
#103=AXIS2_PLACEMENT_3D('',#100,#101,#102);
#105=CARTESIAN_POINT('',(0.E0,0.E0,3.9E0));
#106=DIRECTION('',(0.E0,0.E0,1.E0));
#107=DIRECTION('',(1.E0,0.E0,0.E0));
#108=AXIS2_PLACEMENT_3D('',#105,#106,#107);
#110=CARTESIAN_POINT('',(0.E0,0.E0,3.9E0));
#111=DIRECTION('',(0.E0,0.E0,-1.E0));
#112=DIRECTION('',(1.E0,0.E0,0.E0));
#113=AXIS2_PLACEMENT_3D('',#110,#111,#112);
#115=CARTESIAN_POINT('',(0.E0,0.E0,3.9E0));
#116=DIRECTION('',(0.E0,0.E0,-1.E0));
#117=DIRECTION('',(-1.E0,0.E0,0.E0));
#118=AXIS2_PLACEMENT_3D('',#115,#116,#117);
#120=DIRECTION('',(0.E0,0.E0,-1.E0));
#121=VECTOR('',#120,2.2E0);
#122=CARTESIAN_POINT('',(1.25E1,0.E0,3.9E0));
#123=LINE('',#122,#121);
#124=DIRECTION('',(0.E0,0.E0,1.E0));
#125=VECTOR('',#124,2.2E0);
#126=CARTESIAN_POINT('',(-1.25E1,0.E0,1.7E0));
#127=LINE('',#126,#125);
#128=CARTESIAN_POINT('',(0.E0,0.E0,1.7E0));
#129=DIRECTION('',(0.E0,0.E0,1.E0));
#130=DIRECTION('',(1.E0,0.E0,0.E0));
#131=AXIS2_PLACEMENT_3D('',#128,#129,#130);
#133=CARTESIAN_POINT('',(0.E0,0.E0,1.7E0));
#134=DIRECTION('',(0.E0,0.E0,1.E0));
#135=DIRECTION('',(-1.E0,0.E0,0.E0));
#136=AXIS2_PLACEMENT_3D('',#133,#134,#135);
#138=CARTESIAN_POINT('',(0.E0,0.E0,1.7E0));
#139=DIRECTION('',(0.E0,0.E0,-1.E0));
#140=DIRECTION('',(-1.E0,0.E0,0.E0));
#141=AXIS2_PLACEMENT_3D('',#138,#139,#140);
#143=CARTESIAN_POINT('',(0.E0,0.E0,1.7E0));
#144=DIRECTION('',(0.E0,0.E0,-1.E0));
#145=DIRECTION('',(1.E0,0.E0,0.E0));
#146=AXIS2_PLACEMENT_3D('',#143,#144,#145);
#148=DIRECTION('',(0.E0,0.E0,-1.E0));
#149=VECTOR('',#148,7.E-1);
#150=CARTESIAN_POINT('',(1.16E1,0.E0,1.7E0));
#151=LINE('',#150,#149);
#152=DIRECTION('',(0.E0,-2.030122102172E-14,1.E0));
#153=VECTOR('',#152,7.E-1);
#154=CARTESIAN_POINT('',(-1.16E1,0.E0,1.E0));
#155=LINE('',#154,#153);
#156=CARTESIAN_POINT('',(0.E0,0.E0,1.E0));
#157=DIRECTION('',(0.E0,0.E0,1.E0));
#158=DIRECTION('',(1.E0,0.E0,0.E0));
#159=AXIS2_PLACEMENT_3D('',#156,#157,#158);
#161=CARTESIAN_POINT('',(0.E0,0.E0,1.E0));
#162=DIRECTION('',(0.E0,0.E0,1.E0));
#163=DIRECTION('',(-1.E0,0.E0,0.E0));
#164=AXIS2_PLACEMENT_3D('',#161,#162,#163);
#166=CARTESIAN_POINT('',(0.E0,0.E0,1.E0));
#167=DIRECTION('',(0.E0,0.E0,-1.E0));
#168=DIRECTION('',(-1.E0,0.E0,0.E0));
#169=AXIS2_PLACEMENT_3D('',#166,#167,#168);
#171=CARTESIAN_POINT('',(0.E0,0.E0,1.E0));
#172=DIRECTION('',(0.E0,0.E0,-1.E0));
#173=DIRECTION('',(1.E0,0.E0,0.E0));
#174=AXIS2_PLACEMENT_3D('',#171,#172,#173);
#176=DIRECTION('',(0.E0,0.E0,-1.E0));
#177=VECTOR('',#176,1.E0);
#178=CARTESIAN_POINT('',(1.E1,0.E0,1.E0));
#179=LINE('',#178,#177);
#180=DIRECTION('',(0.E0,0.E0,1.E0));
#181=VECTOR('',#180,1.E0);
#182=CARTESIAN_POINT('',(-1.E1,0.E0,0.E0));
#183=LINE('',#182,#181);
#184=CARTESIAN_POINT('',(0.E0,0.E0,0.E0));
#185=DIRECTION('',(0.E0,0.E0,1.E0));
#186=DIRECTION('',(1.E0,0.E0,0.E0));
#187=AXIS2_PLACEMENT_3D('',#184,#185,#186);
#189=CARTESIAN_POINT('',(0.E0,0.E0,0.E0));
#190=DIRECTION('',(0.E0,0.E0,1.E0));
#191=DIRECTION('',(-1.E0,0.E0,0.E0));
#192=AXIS2_PLACEMENT_3D('',#189,#190,#191);
#194=CARTESIAN_POINT('',(0.E0,0.E0,7.025E0));
#195=DIRECTION('',(0.E0,0.E0,1.E0));
#196=DIRECTION('',(1.E0,0.E0,0.E0));
#197=AXIS2_PLACEMENT_3D('',#194,#195,#196);
#199=CARTESIAN_POINT('',(0.E0,0.E0,7.025E0));
#200=DIRECTION('',(0.E0,0.E0,1.E0));
#201=DIRECTION('',(-1.E0,0.E0,0.E0));
#202=AXIS2_PLACEMENT_3D('',#199,#200,#201);
#204=CARTESIAN_POINT('',(1.025E1,0.E0,7.025E0));
#205=CARTESIAN_POINT('',(1.025E1,0.E0,7.1E0));
#206=VERTEX_POINT('',#204);
#207=VERTEX_POINT('',#205);
#208=CARTESIAN_POINT('',(-1.025E1,-1.243449787580E-14,7.025E0));
#209=VERTEX_POINT('',#208);
#210=CARTESIAN_POINT('',(-1.025E1,0.E0,7.1E0));
#211=VERTEX_POINT('',#210);
#212=CARTESIAN_POINT('',(1.2E1,1.687538997430E-14,7.1E0));
#213=CARTESIAN_POINT('',(-1.2E1,1.123953877568E-14,7.1E0));
#214=VERTEX_POINT('',#212);
#215=VERTEX_POINT('',#213);
#216=CARTESIAN_POINT('',(-1.2E1,0.E0,3.9E0));
#217=VERTEX_POINT('',#216);
#218=CARTESIAN_POINT('',(1.2E1,0.E0,3.9E0));
#219=VERTEX_POINT('',#218);
#220=CARTESIAN_POINT('',(1.25E1,0.E0,3.9E0));
#221=CARTESIAN_POINT('',(-1.25E1,-2.111774120342E-14,3.9E0));
#222=VERTEX_POINT('',#220);
#223=VERTEX_POINT('',#221);
#224=CARTESIAN_POINT('',(-1.25E1,0.E0,1.7E0));
#225=VERTEX_POINT('',#224);
#226=CARTESIAN_POINT('',(1.25E1,0.E0,1.7E0));
#227=VERTEX_POINT('',#226);
#228=CARTESIAN_POINT('',(-1.16E1,-1.687538997430E-14,1.7E0));
#229=CARTESIAN_POINT('',(1.16E1,1.829598026131E-14,1.7E0));
#230=VERTEX_POINT('',#228);
#231=VERTEX_POINT('',#229);
#232=CARTESIAN_POINT('',(-1.16E1,0.E0,1.E0));
#233=VERTEX_POINT('',#232);
#234=CARTESIAN_POINT('',(1.16E1,1.509903313490E-14,1.E0));
#235=VERTEX_POINT('',#234);
#236=CARTESIAN_POINT('',(-1.E1,0.E0,1.E0));
#237=CARTESIAN_POINT('',(1.E1,0.E0,1.E0));
#238=VERTEX_POINT('',#236);
#239=VERTEX_POINT('',#237);
#240=CARTESIAN_POINT('',(-1.E1,0.E0,0.E0));
#241=VERTEX_POINT('',#240);
#242=CARTESIAN_POINT('',(1.E1,0.E0,0.E0));
#243=VERTEX_POINT('',#242);
#244=CARTESIAN_POINT('',(0.E0,0.E0,7.025E0));
#245=DIRECTION('',(0.E0,0.E0,1.E0));
#246=DIRECTION('',(1.E0,0.E0,0.E0));
#247=AXIS2_PLACEMENT_3D('',#244,#245,#246);
#248=CYLINDRICAL_SURFACE('',#247,1.025E1);
#250=ORIENTED_EDGE('',*,*,#249,.T.);
#252=ORIENTED_EDGE('',*,*,#251,.T.);
#254=ORIENTED_EDGE('',*,*,#253,.T.);
#256=ORIENTED_EDGE('',*,*,#255,.T.);
#257=EDGE_LOOP('',(#250,#252,#254,#256));
#258=FACE_OUTER_BOUND('',#257,.F.);
#259=ADVANCED_FACE('',(#258),#248,.F.);
#260=FILL_AREA_STYLE_COLOUR('',#29);
#261=FILL_AREA_STYLE('',(#260));
#262=SURFACE_STYLE_FILL_AREA(#261);
#263=SURFACE_SIDE_STYLE('',(#262));
#264=SURFACE_STYLE_USAGE(.POSITIVE.,#263);
#265=FILL_AREA_STYLE_COLOUR('',#58);
#266=FILL_AREA_STYLE('',(#265));
#267=SURFACE_STYLE_FILL_AREA(#266);
#268=SURFACE_SIDE_STYLE('',(#267));
#269=SURFACE_STYLE_USAGE(.NEGATIVE.,#268);
#270=PRESENTATION_STYLE_ASSIGNMENT((#264,#269));
#271=STYLED_ITEM('',(#270),#259);
#272=CARTESIAN_POINT('',(0.E0,0.E0,7.025E0));
#273=DIRECTION('',(0.E0,0.E0,1.E0));
#274=DIRECTION('',(1.E0,0.E0,0.E0));
#275=AXIS2_PLACEMENT_3D('',#272,#273,#274);
#276=CYLINDRICAL_SURFACE('',#275,1.025E1);
#278=ORIENTED_EDGE('',*,*,#277,.T.);
#279=ORIENTED_EDGE('',*,*,#249,.F.);
#281=ORIENTED_EDGE('',*,*,#280,.T.);
#282=ORIENTED_EDGE('',*,*,#253,.F.);
#283=EDGE_LOOP('',(#278,#279,#281,#282));
#284=FACE_OUTER_BOUND('',#283,.F.);
#285=ADVANCED_FACE('',(#284),#276,.F.);
#286=FILL_AREA_STYLE_COLOUR('',#29);
#287=FILL_AREA_STYLE('',(#286));
#288=SURFACE_STYLE_FILL_AREA(#287);
#289=SURFACE_SIDE_STYLE('',(#288));
#290=SURFACE_STYLE_USAGE(.POSITIVE.,#289);
#291=FILL_AREA_STYLE_COLOUR('',#58);
#292=FILL_AREA_STYLE('',(#291));
#293=SURFACE_STYLE_FILL_AREA(#292);
#294=SURFACE_SIDE_STYLE('',(#293));
#295=SURFACE_STYLE_USAGE(.NEGATIVE.,#294);
#296=PRESENTATION_STYLE_ASSIGNMENT((#290,#295));
#297=STYLED_ITEM('',(#296),#285);
#298=CARTESIAN_POINT('',(0.E0,0.E0,7.1E0));
#299=DIRECTION('',(0.E0,0.E0,1.E0));
#300=DIRECTION('',(1.E0,0.E0,0.E0));
#301=AXIS2_PLACEMENT_3D('',#298,#299,#300);
#302=PLANE('',#301);
#304=ORIENTED_EDGE('',*,*,#303,.F.);
#306=ORIENTED_EDGE('',*,*,#305,.F.);
#307=EDGE_LOOP('',(#304,#306));
#308=FACE_OUTER_BOUND('',#307,.F.);
#309=ORIENTED_EDGE('',*,*,#277,.F.);
#310=ORIENTED_EDGE('',*,*,#251,.F.);
#311=EDGE_LOOP('',(#309,#310));
#312=FACE_BOUND('',#311,.F.);
#313=ADVANCED_FACE('',(#308,#312),#302,.T.);
#314=FILL_AREA_STYLE_COLOUR('',#27);
#315=FILL_AREA_STYLE('',(#314));
#316=SURFACE_STYLE_FILL_AREA(#315);
#317=SURFACE_SIDE_STYLE('',(#316));
#318=SURFACE_STYLE_USAGE(.POSITIVE.,#317);
#319=FILL_AREA_STYLE_COLOUR('',#58);
#320=FILL_AREA_STYLE('',(#319));
#321=SURFACE_STYLE_FILL_AREA(#320);
#322=SURFACE_SIDE_STYLE('',(#321));
#323=SURFACE_STYLE_USAGE(.NEGATIVE.,#322);
#324=PRESENTATION_STYLE_ASSIGNMENT((#318,#323));
#325=STYLED_ITEM('',(#324),#313);
#326=CARTESIAN_POINT('',(0.E0,0.E0,7.1E0));
#327=DIRECTION('',(0.E0,0.E0,-1.E0));
#328=DIRECTION('',(-1.E0,0.E0,0.E0));
#329=AXIS2_PLACEMENT_3D('',#326,#327,#328);
#330=CYLINDRICAL_SURFACE('',#329,1.2E1);
#332=ORIENTED_EDGE('',*,*,#331,.T.);
#334=ORIENTED_EDGE('',*,*,#333,.T.);
#336=ORIENTED_EDGE('',*,*,#335,.T.);
#337=ORIENTED_EDGE('',*,*,#303,.T.);
#338=EDGE_LOOP('',(#332,#334,#336,#337));
#339=FACE_OUTER_BOUND('',#338,.F.);
#340=ADVANCED_FACE('',(#339),#330,.T.);
#341=FILL_AREA_STYLE_COLOUR('',#27);
#342=FILL_AREA_STYLE('',(#341));
#343=SURFACE_STYLE_FILL_AREA(#342);
#344=SURFACE_SIDE_STYLE('',(#343));
#345=SURFACE_STYLE_USAGE(.POSITIVE.,#344);
#346=FILL_AREA_STYLE_COLOUR('',#58);
#347=FILL_AREA_STYLE('',(#346));
#348=SURFACE_STYLE_FILL_AREA(#347);
#349=SURFACE_SIDE_STYLE('',(#348));
#350=SURFACE_STYLE_USAGE(.NEGATIVE.,#349);
#351=PRESENTATION_STYLE_ASSIGNMENT((#345,#350));
#352=STYLED_ITEM('',(#351),#340);
#353=CARTESIAN_POINT('',(0.E0,0.E0,7.1E0));
#354=DIRECTION('',(0.E0,0.E0,-1.E0));
#355=DIRECTION('',(-1.E0,0.E0,0.E0));
#356=AXIS2_PLACEMENT_3D('',#353,#354,#355);
#357=CYLINDRICAL_SURFACE('',#356,1.2E1);
#358=ORIENTED_EDGE('',*,*,#305,.T.);
#359=ORIENTED_EDGE('',*,*,#335,.F.);
#361=ORIENTED_EDGE('',*,*,#360,.T.);
#362=ORIENTED_EDGE('',*,*,#331,.F.);
#363=EDGE_LOOP('',(#358,#359,#361,#362));
#364=FACE_OUTER_BOUND('',#363,.F.);
#365=ADVANCED_FACE('',(#364),#357,.T.);
#366=FILL_AREA_STYLE_COLOUR('',#27);
#367=FILL_AREA_STYLE('',(#366));
#368=SURFACE_STYLE_FILL_AREA(#367);
#369=SURFACE_SIDE_STYLE('',(#368));
#370=SURFACE_STYLE_USAGE(.POSITIVE.,#369);
#371=FILL_AREA_STYLE_COLOUR('',#58);
#372=FILL_AREA_STYLE('',(#371));
#373=SURFACE_STYLE_FILL_AREA(#372);
#374=SURFACE_SIDE_STYLE('',(#373));
#375=SURFACE_STYLE_USAGE(.NEGATIVE.,#374);
#376=PRESENTATION_STYLE_ASSIGNMENT((#370,#375));
#377=STYLED_ITEM('',(#376),#365);
#378=CARTESIAN_POINT('',(0.E0,0.E0,3.9E0));
#379=DIRECTION('',(0.E0,0.E0,1.E0));
#380=DIRECTION('',(1.E0,0.E0,0.E0));
#381=AXIS2_PLACEMENT_3D('',#378,#379,#380);
#382=PLANE('',#381);
#384=ORIENTED_EDGE('',*,*,#383,.F.);
#386=ORIENTED_EDGE('',*,*,#385,.F.);
#387=EDGE_LOOP('',(#384,#386));
#388=FACE_OUTER_BOUND('',#387,.F.);
#389=ORIENTED_EDGE('',*,*,#333,.F.);
#390=ORIENTED_EDGE('',*,*,#360,.F.);
#391=EDGE_LOOP('',(#389,#390));
#392=FACE_BOUND('',#391,.F.);
#393=ADVANCED_FACE('',(#388,#392),#382,.T.);
#394=FILL_AREA_STYLE_COLOUR('',#27);
#395=FILL_AREA_STYLE('',(#394));
#396=SURFACE_STYLE_FILL_AREA(#395);
#397=SURFACE_SIDE_STYLE('',(#396));
#398=SURFACE_STYLE_USAGE(.POSITIVE.,#397);
#399=FILL_AREA_STYLE_COLOUR('',#58);
#400=FILL_AREA_STYLE('',(#399));
#401=SURFACE_STYLE_FILL_AREA(#400);
#402=SURFACE_SIDE_STYLE('',(#401));
#403=SURFACE_STYLE_USAGE(.NEGATIVE.,#402);
#404=PRESENTATION_STYLE_ASSIGNMENT((#398,#403));
#405=STYLED_ITEM('',(#404),#393);
#406=CARTESIAN_POINT('',(0.E0,0.E0,3.9E0));
#407=DIRECTION('',(0.E0,0.E0,-1.E0));
#408=DIRECTION('',(-1.E0,0.E0,0.E0));
#409=AXIS2_PLACEMENT_3D('',#406,#407,#408);
#410=CYLINDRICAL_SURFACE('',#409,1.25E1);
#412=ORIENTED_EDGE('',*,*,#411,.T.);
#414=ORIENTED_EDGE('',*,*,#413,.F.);
#416=ORIENTED_EDGE('',*,*,#415,.T.);
#417=ORIENTED_EDGE('',*,*,#383,.T.);
#418=EDGE_LOOP('',(#412,#414,#416,#417));
#419=FACE_OUTER_BOUND('',#418,.F.);
#420=ADVANCED_FACE('',(#419),#410,.T.);
#421=FILL_AREA_STYLE_COLOUR('',#27);
#422=FILL_AREA_STYLE('',(#421));
#423=SURFACE_STYLE_FILL_AREA(#422);
#424=SURFACE_SIDE_STYLE('',(#423));
#425=SURFACE_STYLE_USAGE(.POSITIVE.,#424);
#426=FILL_AREA_STYLE_COLOUR('',#58);
#427=FILL_AREA_STYLE('',(#426));
#428=SURFACE_STYLE_FILL_AREA(#427);
#429=SURFACE_SIDE_STYLE('',(#428));
#430=SURFACE_STYLE_USAGE(.NEGATIVE.,#429);
#431=PRESENTATION_STYLE_ASSIGNMENT((#425,#430));
#432=STYLED_ITEM('',(#431),#420);
#433=CARTESIAN_POINT('',(0.E0,0.E0,3.9E0));
#434=DIRECTION('',(0.E0,0.E0,-1.E0));
#435=DIRECTION('',(-1.E0,0.E0,0.E0));
#436=AXIS2_PLACEMENT_3D('',#433,#434,#435);
#437=CYLINDRICAL_SURFACE('',#436,1.25E1);
#438=ORIENTED_EDGE('',*,*,#385,.T.);
#439=ORIENTED_EDGE('',*,*,#415,.F.);
#441=ORIENTED_EDGE('',*,*,#440,.F.);
#442=ORIENTED_EDGE('',*,*,#411,.F.);
#443=EDGE_LOOP('',(#438,#439,#441,#442));
#444=FACE_OUTER_BOUND('',#443,.F.);
#445=ADVANCED_FACE('',(#444),#437,.T.);
#446=FILL_AREA_STYLE_COLOUR('',#27);
#447=FILL_AREA_STYLE('',(#446));
#448=SURFACE_STYLE_FILL_AREA(#447);
#449=SURFACE_SIDE_STYLE('',(#448));
#450=SURFACE_STYLE_USAGE(.POSITIVE.,#449);
#451=FILL_AREA_STYLE_COLOUR('',#58);
#452=FILL_AREA_STYLE('',(#451));
#453=SURFACE_STYLE_FILL_AREA(#452);
#454=SURFACE_SIDE_STYLE('',(#453));
#455=SURFACE_STYLE_USAGE(.NEGATIVE.,#454);
#456=PRESENTATION_STYLE_ASSIGNMENT((#450,#455));
#457=STYLED_ITEM('',(#456),#445);
#458=CARTESIAN_POINT('',(0.E0,0.E0,1.7E0));
#459=DIRECTION('',(0.E0,0.E0,1.E0));
#460=DIRECTION('',(1.E0,0.E0,0.E0));
#461=AXIS2_PLACEMENT_3D('',#458,#459,#460);
#462=PLANE('',#461);
#463=ORIENTED_EDGE('',*,*,#440,.T.);
#464=ORIENTED_EDGE('',*,*,#413,.T.);
#465=EDGE_LOOP('',(#463,#464));
#466=FACE_OUTER_BOUND('',#465,.F.);
#468=ORIENTED_EDGE('',*,*,#467,.T.);
#470=ORIENTED_EDGE('',*,*,#469,.T.);
#471=EDGE_LOOP('',(#468,#470));
#472=FACE_BOUND('',#471,.F.);
#473=ADVANCED_FACE('',(#466,#472),#462,.F.);
#474=FILL_AREA_STYLE_COLOUR('',#28);
#475=FILL_AREA_STYLE('',(#474));
#476=SURFACE_STYLE_FILL_AREA(#475);
#477=SURFACE_SIDE_STYLE('',(#476));
#478=SURFACE_STYLE_USAGE(.POSITIVE.,#477);
#479=FILL_AREA_STYLE_COLOUR('',#58);
#480=FILL_AREA_STYLE('',(#479));
#481=SURFACE_STYLE_FILL_AREA(#480);
#482=SURFACE_SIDE_STYLE('',(#481));
#483=SURFACE_STYLE_USAGE(.NEGATIVE.,#482);
#484=PRESENTATION_STYLE_ASSIGNMENT((#478,#483));
#485=STYLED_ITEM('',(#484),#473);
#486=CARTESIAN_POINT('',(0.E0,0.E0,1.7E0));
#487=DIRECTION('',(0.E0,0.E0,-1.E0));
#488=DIRECTION('',(-1.E0,0.E0,0.E0));
#489=AXIS2_PLACEMENT_3D('',#486,#487,#488);
#490=CYLINDRICAL_SURFACE('',#489,1.16E1);
#491=ORIENTED_EDGE('',*,*,#467,.F.);
#493=ORIENTED_EDGE('',*,*,#492,.F.);
#495=ORIENTED_EDGE('',*,*,#494,.F.);
#497=ORIENTED_EDGE('',*,*,#496,.F.);
#498=EDGE_LOOP('',(#491,#493,#495,#497));
#499=FACE_OUTER_BOUND('',#498,.F.);
#500=ADVANCED_FACE('',(#499),#490,.T.);
#501=FILL_AREA_STYLE_COLOUR('',#28);
#502=FILL_AREA_STYLE('',(#501));
#503=SURFACE_STYLE_FILL_AREA(#502);
#504=SURFACE_SIDE_STYLE('',(#503));
#505=SURFACE_STYLE_USAGE(.POSITIVE.,#504);
#506=FILL_AREA_STYLE_COLOUR('',#58);
#507=FILL_AREA_STYLE('',(#506));
#508=SURFACE_STYLE_FILL_AREA(#507);
#509=SURFACE_SIDE_STYLE('',(#508));
#510=SURFACE_STYLE_USAGE(.NEGATIVE.,#509);
#511=PRESENTATION_STYLE_ASSIGNMENT((#505,#510));
#512=STYLED_ITEM('',(#511),#500);
#513=CARTESIAN_POINT('',(0.E0,0.E0,1.7E0));
#514=DIRECTION('',(0.E0,0.E0,-1.E0));
#515=DIRECTION('',(-1.E0,0.E0,0.E0));
#516=AXIS2_PLACEMENT_3D('',#513,#514,#515);
#517=CYLINDRICAL_SURFACE('',#516,1.16E1);
#518=ORIENTED_EDGE('',*,*,#496,.T.);
#520=ORIENTED_EDGE('',*,*,#519,.F.);
#521=ORIENTED_EDGE('',*,*,#492,.T.);
#522=ORIENTED_EDGE('',*,*,#469,.F.);
#523=EDGE_LOOP('',(#518,#520,#521,#522));
#524=FACE_OUTER_BOUND('',#523,.F.);
#525=ADVANCED_FACE('',(#524),#517,.T.);
#526=FILL_AREA_STYLE_COLOUR('',#28);
#527=FILL_AREA_STYLE('',(#526));
#528=SURFACE_STYLE_FILL_AREA(#527);
#529=SURFACE_SIDE_STYLE('',(#528));
#530=SURFACE_STYLE_USAGE(.POSITIVE.,#529);
#531=FILL_AREA_STYLE_COLOUR('',#58);
#532=FILL_AREA_STYLE('',(#531));
#533=SURFACE_STYLE_FILL_AREA(#532);
#534=SURFACE_SIDE_STYLE('',(#533));
#535=SURFACE_STYLE_USAGE(.NEGATIVE.,#534);
#536=PRESENTATION_STYLE_ASSIGNMENT((#530,#535));
#537=STYLED_ITEM('',(#536),#525);
#538=CARTESIAN_POINT('',(0.E0,0.E0,1.E0));
#539=DIRECTION('',(0.E0,0.E0,1.E0));
#540=DIRECTION('',(1.E0,0.E0,0.E0));
#541=AXIS2_PLACEMENT_3D('',#538,#539,#540);
#542=PLANE('',#541);
#543=ORIENTED_EDGE('',*,*,#494,.T.);
#544=ORIENTED_EDGE('',*,*,#519,.T.);
#545=EDGE_LOOP('',(#543,#544));
#546=FACE_OUTER_BOUND('',#545,.F.);
#548=ORIENTED_EDGE('',*,*,#547,.T.);
#550=ORIENTED_EDGE('',*,*,#549,.T.);
#551=EDGE_LOOP('',(#548,#550));
#552=FACE_BOUND('',#551,.F.);
#553=ADVANCED_FACE('',(#546,#552),#542,.F.);
#554=FILL_AREA_STYLE_COLOUR('',#28);
#555=FILL_AREA_STYLE('',(#554));
#556=SURFACE_STYLE_FILL_AREA(#555);
#557=SURFACE_SIDE_STYLE('',(#556));
#558=SURFACE_STYLE_USAGE(.POSITIVE.,#557);
#559=FILL_AREA_STYLE_COLOUR('',#58);
#560=FILL_AREA_STYLE('',(#559));
#561=SURFACE_STYLE_FILL_AREA(#560);
#562=SURFACE_SIDE_STYLE('',(#561));
#563=SURFACE_STYLE_USAGE(.NEGATIVE.,#562);
#564=PRESENTATION_STYLE_ASSIGNMENT((#558,#563));
#565=STYLED_ITEM('',(#564),#553);
#566=CARTESIAN_POINT('',(0.E0,0.E0,1.E0));
#567=DIRECTION('',(0.E0,0.E0,-1.E0));
#568=DIRECTION('',(-1.E0,0.E0,0.E0));
#569=AXIS2_PLACEMENT_3D('',#566,#567,#568);
#570=CYLINDRICAL_SURFACE('',#569,1.E1);
#571=ORIENTED_EDGE('',*,*,#547,.F.);
#573=ORIENTED_EDGE('',*,*,#572,.F.);
#575=ORIENTED_EDGE('',*,*,#574,.F.);
#577=ORIENTED_EDGE('',*,*,#576,.F.);
#578=EDGE_LOOP('',(#571,#573,#575,#577));
#579=FACE_OUTER_BOUND('',#578,.F.);
#580=ADVANCED_FACE('',(#579),#570,.T.);
#581=FILL_AREA_STYLE_COLOUR('',#28);
#582=FILL_AREA_STYLE('',(#581));
#583=SURFACE_STYLE_FILL_AREA(#582);
#584=SURFACE_SIDE_STYLE('',(#583));
#585=SURFACE_STYLE_USAGE(.POSITIVE.,#584);
#586=FILL_AREA_STYLE_COLOUR('',#58);
#587=FILL_AREA_STYLE('',(#586));
#588=SURFACE_STYLE_FILL_AREA(#587);
#589=SURFACE_SIDE_STYLE('',(#588));
#590=SURFACE_STYLE_USAGE(.NEGATIVE.,#589);
#591=PRESENTATION_STYLE_ASSIGNMENT((#585,#590));
#592=STYLED_ITEM('',(#591),#580);
#593=CARTESIAN_POINT('',(0.E0,0.E0,1.E0));
#594=DIRECTION('',(0.E0,0.E0,-1.E0));
#595=DIRECTION('',(-1.E0,0.E0,0.E0));
#596=AXIS2_PLACEMENT_3D('',#593,#594,#595);
#597=CYLINDRICAL_SURFACE('',#596,1.E1);
#598=ORIENTED_EDGE('',*,*,#576,.T.);
#600=ORIENTED_EDGE('',*,*,#599,.F.);
#601=ORIENTED_EDGE('',*,*,#572,.T.);
#602=ORIENTED_EDGE('',*,*,#549,.F.);
#603=EDGE_LOOP('',(#598,#600,#601,#602));
#604=FACE_OUTER_BOUND('',#603,.F.);
#605=ADVANCED_FACE('',(#604),#597,.T.);
#606=FILL_AREA_STYLE_COLOUR('',#28);
#607=FILL_AREA_STYLE('',(#606));
#608=SURFACE_STYLE_FILL_AREA(#607);
#609=SURFACE_SIDE_STYLE('',(#608));
#610=SURFACE_STYLE_USAGE(.POSITIVE.,#609);
#611=FILL_AREA_STYLE_COLOUR('',#58);
#612=FILL_AREA_STYLE('',(#611));
#613=SURFACE_STYLE_FILL_AREA(#612);
#614=SURFACE_SIDE_STYLE('',(#613));
#615=SURFACE_STYLE_USAGE(.NEGATIVE.,#614);
#616=PRESENTATION_STYLE_ASSIGNMENT((#610,#615));
#617=STYLED_ITEM('',(#616),#605);
#618=CARTESIAN_POINT('',(0.E0,0.E0,0.E0));
#619=DIRECTION('',(0.E0,0.E0,1.E0));
#620=DIRECTION('',(1.E0,0.E0,0.E0));
#621=AXIS2_PLACEMENT_3D('',#618,#619,#620);
#622=PLANE('',#621);
#623=ORIENTED_EDGE('',*,*,#574,.T.);
#624=ORIENTED_EDGE('',*,*,#599,.T.);
#625=EDGE_LOOP('',(#623,#624));
#626=FACE_OUTER_BOUND('',#625,.F.);
#627=ADVANCED_FACE('',(#626),#622,.F.);
#628=FILL_AREA_STYLE_COLOUR('',#28);
#629=FILL_AREA_STYLE('',(#628));
#630=SURFACE_STYLE_FILL_AREA(#629);
#631=SURFACE_SIDE_STYLE('',(#630));
#632=SURFACE_STYLE_USAGE(.POSITIVE.,#631);
#633=FILL_AREA_STYLE_COLOUR('',#58);
#634=FILL_AREA_STYLE('',(#633));
#635=SURFACE_STYLE_FILL_AREA(#634);
#636=SURFACE_SIDE_STYLE('',(#635));
#637=SURFACE_STYLE_USAGE(.NEGATIVE.,#636);
#638=PRESENTATION_STYLE_ASSIGNMENT((#632,#637));
#639=STYLED_ITEM('',(#638),#627);
#640=CARTESIAN_POINT('',(0.E0,0.E0,7.025E0));
#641=DIRECTION('',(0.E0,0.E0,1.E0));
#642=DIRECTION('',(1.E0,0.E0,0.E0));
#643=AXIS2_PLACEMENT_3D('',#640,#641,#642);
#644=PLANE('',#643);
#645=ORIENTED_EDGE('',*,*,#280,.F.);
#646=ORIENTED_EDGE('',*,*,#255,.F.);
#647=EDGE_LOOP('',(#645,#646));
#648=FACE_OUTER_BOUND('',#647,.F.);
#649=ADVANCED_FACE('',(#648),#644,.T.);
#650=FILL_AREA_STYLE_COLOUR('',#27);
#651=FILL_AREA_STYLE('',(#650));
#652=SURFACE_STYLE_FILL_AREA(#651);
#653=SURFACE_SIDE_STYLE('',(#652));
#654=SURFACE_STYLE_USAGE(.POSITIVE.,#653);
#655=FILL_AREA_STYLE_COLOUR('',#58);
#656=FILL_AREA_STYLE('',(#655));
#657=SURFACE_STYLE_FILL_AREA(#656);
#658=SURFACE_SIDE_STYLE('',(#657));
#659=SURFACE_STYLE_USAGE(.NEGATIVE.,#658);
#660=PRESENTATION_STYLE_ASSIGNMENT((#654,#659));
#661=STYLED_ITEM('',(#660),#649);
#662=CLOSED_SHELL('',(#259,#285,#313,#340,#365,#393,#420,#445,#473,#500,#525,
#553,#580,#605,#627,#649));
#663=MANIFOLD_SOLID_BREP('',#662);
#665=DIMENSIONAL_EXPONENTS(0.E0,0.E0,0.E0,0.E0,0.E0,0.E0,0.E0);
#667=PLANE_ANGLE_MEASURE_WITH_UNIT(PLANE_ANGLE_MEASURE(1.745329251994E-2),#666);
#668=(CONVERSION_BASED_UNIT('DEGREE',#667)NAMED_UNIT(*)PLANE_ANGLE_UNIT());
#670=UNCERTAINTY_MEASURE_WITH_UNIT(LENGTH_MEASURE(3.607166317169E-3),#664,
'closure',
'Maximum model space distance between geometric entities at asserted connectivities');
#671=(GEOMETRIC_REPRESENTATION_CONTEXT(3)GLOBAL_UNCERTAINTY_ASSIGNED_CONTEXT((
#670))GLOBAL_UNIT_ASSIGNED_CONTEXT((#664,#668,#669))REPRESENTATION_CONTEXT
('ID1','3'));
#673=MECHANICAL_DESIGN_GEOMETRIC_PRESENTATION_REPRESENTATION('',(#271,#297,#325,
#352,#377,#405,#432,#457,#485,#512,#537,#565,#592,#617,#639,#661),#671);
#674=APPLICATION_CONTEXT(
'CONFIGURATION CONTROLLED 3D DESIGNS OF MECHANICAL PARTS AND ASSEMBLIES');
#675=APPLICATION_PROTOCOL_DEFINITION('international standard',
'config_control_design',1994,#674);
#676=DESIGN_CONTEXT('',#674,'design');
#677=MECHANICAL_CONTEXT('',#674,'mechanical');
#678=PRODUCT('DBCAD2608_REF-MH20','DBCAD2608_REF-MH20','NOT SPECIFIED',(#677));
#679=PRODUCT_DEFINITION_FORMATION_WITH_SPECIFIED_SOURCE('1','LAST_VERSION',#678,
.MADE.);
#683=PRODUCT_CATEGORY('part','');
#684=PRODUCT_RELATED_PRODUCT_CATEGORY('detail','',(#678));
#685=PRODUCT_CATEGORY_RELATIONSHIP('','',#683,#684);
#686=SECURITY_CLASSIFICATION_LEVEL('unclassified');
#687=SECURITY_CLASSIFICATION('','',#686);
#688=CC_DESIGN_SECURITY_CLASSIFICATION(#687,(#679));
#689=APPROVAL_STATUS('approved');
#690=APPROVAL(#689,'');
#691=CC_DESIGN_APPROVAL(#690,(#687,#679,#680));
#692=CALENDAR_DATE(117,8,6);
#693=COORDINATED_UNIVERSAL_TIME_OFFSET(2,0,.AHEAD.);
#694=LOCAL_TIME(12,14,3.8E1,#693);
#695=DATE_AND_TIME(#692,#694);
#696=APPROVAL_DATE_TIME(#695,#690);
#697=DATE_TIME_ROLE('creation_date');
#698=CC_DESIGN_DATE_AND_TIME_ASSIGNMENT(#695,#697,(#680));
#699=DATE_TIME_ROLE('classification_date');
#700=CC_DESIGN_DATE_AND_TIME_ASSIGNMENT(#695,#699,(#687));
#701=PERSON('UNSPECIFIED','UNSPECIFIED',$,$,$,$);
#702=ORGANIZATION('UNSPECIFIED','UNSPECIFIED','UNSPECIFIED');
#703=PERSON_AND_ORGANIZATION(#701,#702);
#704=APPROVAL_ROLE('approver');
#705=APPROVAL_PERSON_ORGANIZATION(#703,#690,#704);
#706=PERSON_AND_ORGANIZATION_ROLE('creator');
#707=CC_DESIGN_PERSON_AND_ORGANIZATION_ASSIGNMENT(#703,#706,(#679,#680));
#708=PERSON_AND_ORGANIZATION_ROLE('design_supplier');
#709=CC_DESIGN_PERSON_AND_ORGANIZATION_ASSIGNMENT(#703,#708,(#679));
#710=PERSON_AND_ORGANIZATION_ROLE('classification_officer');
#711=CC_DESIGN_PERSON_AND_ORGANIZATION_ASSIGNMENT(#703,#710,(#687));
#712=PERSON_AND_ORGANIZATION_ROLE('design_owner');
#713=CC_DESIGN_PERSON_AND_ORGANIZATION_ASSIGNMENT(#703,#712,(#678));
#1=COLOUR_RGB('',0.E0,0.E0,1.96E-1);
#2=COLOUR_RGB('',0.E0,0.E0,3.14E-1);
#3=COLOUR_RGB('',0.E0,1.96E-1,0.E0);
#4=COLOUR_RGB('',0.E0,3.14E-1,0.E0);
#5=COLOUR_RGB('',7.8E-2,7.8E-2,7.8E-2);
#6=COLOUR_RGB('',1.18E-1,1.18E-1,4.71E-1);
#7=COLOUR_RGB('',1.57E-1,1.57E-1,1.57E-1);
#8=COLOUR_RGB('',1.96E-1,0.E0,0.E0);
#9=COLOUR_RGB('',1.96E-1,0.E0,1.96E-1);
#10=COLOUR_RGB('',1.96E-1,5.88E-1,1.96E-1);
#11=COLOUR_RGB('',2.35E-1,2.35E-1,2.35E-1);
#12=COLOUR_RGB('',2.35E-1,2.35E-1,5.88E-1);
#13=COLOUR_RGB('',3.14E-1,3.14E-1,3.14E-1);
#14=COLOUR_RGB('',3.27543E-1,1.E0,6.33116E-1);
#15=COLOUR_RGB('',3.27543E-1,1.E0,6.33116E-1);
#16=COLOUR_RGB('',3.27543E-1,1.E0,6.33116E-1);
#17=COLOUR_RGB('',3.27543E-1,1.E0,6.33116E-1);
#18=COLOUR_RGB('',3.27543E-1,1.E0,6.33116E-1);
#19=COLOUR_RGB('',3.27543E-1,1.E0,6.33116E-1);
#20=COLOUR_RGB('',3.27543E-1,1.E0,6.33116E-1);
#21=COLOUR_RGB('',3.27543E-1,1.E0,6.33116E-1);
#22=COLOUR_RGB('',3.27543E-1,1.E0,6.33116E-1);
#23=COLOUR_RGB('',3.27543E-1,1.E0,6.33116E-1);
#24=COLOUR_RGB('',3.27543E-1,1.E0,6.33116E-1);
#25=COLOUR_RGB('',3.27543E-1,1.E0,6.33116E-1);
#26=COLOUR_RGB('',3.27543E-1,1.E0,6.33116E-1);
#27=COLOUR_RGB('',3.27543E-1,1.E0,6.33116E-1);
#28=COLOUR_RGB('',3.27543E-1,1.E0,6.33116E-1);
#29=COLOUR_RGB('',3.27543E-1,1.E0,6.33116E-1);
#30=COLOUR_RGB('',3.27543E-1,1.E0,6.33116E-1);
#31=COLOUR_RGB('',3.27543E-1,1.E0,6.33116E-1);
#32=COLOUR_RGB('',3.27543E-1,1.E0,6.33116E-1);
#33=COLOUR_RGB('',3.27543E-1,1.E0,6.33116E-1);
#34=COLOUR_RGB('',3.27543E-1,1.E0,6.33116E-1);
#35=COLOUR_RGB('',3.27543E-1,1.E0,6.33116E-1);
#36=COLOUR_RGB('',3.27543E-1,1.E0,6.33116E-1);
#37=COLOUR_RGB('',3.27543E-1,1.E0,6.33116E-1);
#38=COLOUR_RGB('',3.27543E-1,1.E0,6.33116E-1);
#39=COLOUR_RGB('',3.27543E-1,1.E0,6.33116E-1);
#40=COLOUR_RGB('',3.27543E-1,1.E0,6.33116E-1);
#41=COLOUR_RGB('',3.27543E-1,1.E0,6.33116E-1);
#42=COLOUR_RGB('',3.27543E-1,1.E0,6.33116E-1);
#43=COLOUR_RGB('',3.27543E-1,1.E0,6.33116E-1);
#44=COLOUR_RGB('',3.27543E-1,1.E0,6.33116E-1);
#45=COLOUR_RGB('',3.92E-1,0.E0,0.E0);
#46=COLOUR_RGB('',3.92E-1,0.E0,3.92E-1);
#47=COLOUR_RGB('',3.92E-1,3.92E-1,3.92E-1);
#48=COLOUR_RGB('',3.92E-1,3.92E-1,8.63E-1);
#49=COLOUR_RGB('',3.92E-1,5.88E-1,3.92E-1);
#50=COLOUR_RGB('',3.92E-1,5.88E-1,8.63E-1);
#51=COLOUR_RGB('',5.01961E-1,1.E0,5.01961E-1);
#52=COLOUR_RGB('',5.5E-1,5.6E-1,7.E-1);
#53=COLOUR_RGB('',5.88E-1,5.88E-1,5.88E-1);
#54=COLOUR_RGB('',5.88E-1,7.84E-1,5.88E-1);
#55=COLOUR_RGB('',6.2E-1,3.1E-1,6.5E-1);
#56=COLOUR_RGB('',6.8E-1,8.5E-1,1.E0);
#57=COLOUR_RGB('',6.952E-1,7.426E-1,7.9E-1);
#58=COLOUR_RGB('',7.960784313725E-1,8.235294117647E-1,9.372549019608E-1);
#59=COLOUR_RGB('',9.8E-1,3.92E-1,0.E0);
#60=COLOUR_RGB('',9.8E-1,5.88E-1,0.E0);
#61=COLOUR_RGB('',9.8E-1,7.84E-1,0.E0);
#62=COLOUR_RGB('',1.E0,3.7E-1,3.8E-1);
#63=DRAUGHTING_PRE_DEFINED_COLOUR('white');
#76=CIRCLE('',#75,1.2E1);
#81=CIRCLE('',#80,1.2E1);
#86=CIRCLE('',#85,1.025E1);
#91=CIRCLE('',#90,1.025E1);
#104=CIRCLE('',#103,1.25E1);
#109=CIRCLE('',#108,1.25E1);
#114=CIRCLE('',#113,1.2E1);
#119=CIRCLE('',#118,1.2E1);
#132=CIRCLE('',#131,1.25E1);
#137=CIRCLE('',#136,1.25E1);
#142=CIRCLE('',#141,1.16E1);
#147=CIRCLE('',#146,1.16E1);
#160=CIRCLE('',#159,1.16E1);
#165=CIRCLE('',#164,1.16E1);
#170=CIRCLE('',#169,1.E1);
#175=CIRCLE('',#174,1.E1);
#188=CIRCLE('',#187,1.E1);
#193=CIRCLE('',#192,1.E1);
#198=CIRCLE('',#197,1.025E1);
#203=CIRCLE('',#202,1.025E1);
#249=EDGE_CURVE('',#206,#207,#67,.T.);
#251=EDGE_CURVE('',#207,#211,#91,.T.);
#253=EDGE_CURVE('',#211,#209,#71,.T.);
#255=EDGE_CURVE('',#209,#206,#203,.T.);
#277=EDGE_CURVE('',#211,#207,#86,.T.);
#280=EDGE_CURVE('',#206,#209,#198,.T.);
#303=EDGE_CURVE('',#215,#214,#76,.T.);
#305=EDGE_CURVE('',#214,#215,#81,.T.);
#331=EDGE_CURVE('',#214,#219,#95,.T.);
#333=EDGE_CURVE('',#219,#217,#114,.T.);
#335=EDGE_CURVE('',#217,#215,#99,.T.);
#360=EDGE_CURVE('',#217,#219,#119,.T.);
#383=EDGE_CURVE('',#223,#222,#104,.T.);
#385=EDGE_CURVE('',#222,#223,#109,.T.);
#411=EDGE_CURVE('',#222,#227,#123,.T.);
#413=EDGE_CURVE('',#225,#227,#137,.T.);
#415=EDGE_CURVE('',#225,#223,#127,.T.);
#440=EDGE_CURVE('',#227,#225,#132,.T.);
#467=EDGE_CURVE('',#230,#231,#142,.T.);
#469=EDGE_CURVE('',#231,#230,#147,.T.);
#492=EDGE_CURVE('',#233,#230,#155,.T.);
#494=EDGE_CURVE('',#235,#233,#160,.T.);
#496=EDGE_CURVE('',#231,#235,#151,.T.);
#519=EDGE_CURVE('',#233,#235,#165,.T.);
#547=EDGE_CURVE('',#238,#239,#170,.T.);
#549=EDGE_CURVE('',#239,#238,#175,.T.);
#572=EDGE_CURVE('',#241,#238,#183,.T.);
#574=EDGE_CURVE('',#243,#241,#188,.T.);
#576=EDGE_CURVE('',#239,#243,#179,.T.);
#599=EDGE_CURVE('',#241,#243,#193,.T.);
#664=(LENGTH_UNIT()NAMED_UNIT(*)SI_UNIT(.MILLI.,.METRE.));
#666=(NAMED_UNIT(*)PLANE_ANGLE_UNIT()SI_UNIT($,.RADIAN.));
#669=(NAMED_UNIT(*)SI_UNIT($,.STERADIAN.)SOLID_ANGLE_UNIT());
#672=ADVANCED_BREP_SHAPE_REPRESENTATION('',(#663),#671);
#680=PRODUCT_DEFINITION('design','',#679,#676);
#681=PRODUCT_DEFINITION_SHAPE('','SHAPE FOR DBCAD2608_REF-MH20.',#680);
#682=SHAPE_DEFINITION_REPRESENTATION(#681,#672);
ENDSEC;
END-ISO-10303-21;
