ISO-10303-21;
HEADER;
FILE_DESCRIPTION((''),'2;1');
FILE_NAME('DBCAD2608_REF-MH20','2017-06-08T',('cmozuch'),(''),
'PRO/ENGINEER BY PARAMETRIC TECHNOLOGY CORPORATION, 2015440',
'PRO/ENGINEER BY PARAMETRIC TECHNOLOGY CORPORATION, 2015440','');
FILE_SCHEMA(('CONFIG_CONTROL_DESIGN'));
ENDSEC;
DATA;
#68=DIRECTION('',(7.105427357605E-14,-1.026339507210E-13,1.E0));
#69=VECTOR('',#68,7.499999999995E-2);
#70=CARTESIAN_POINT('',(1.505E1,0.E0,8.325E0));
#71=LINE('',#70,#69);
#72=DIRECTION('',(0.E0,-2.250051996575E-13,-1.E0));
#73=VECTOR('',#72,7.499999999995E-2);
#74=CARTESIAN_POINT('',(-1.505E1,0.E0,8.4E0));
#75=LINE('',#74,#73);
#76=CARTESIAN_POINT('',(0.E0,0.E0,8.4E0));
#77=DIRECTION('',(0.E0,0.E0,1.E0));
#78=DIRECTION('',(-1.E0,0.E0,0.E0));
#79=AXIS2_PLACEMENT_3D('',#76,#77,#78);
#81=CARTESIAN_POINT('',(0.E0,0.E0,8.4E0));
#82=DIRECTION('',(0.E0,0.E0,1.E0));
#83=DIRECTION('',(1.E0,0.E0,0.E0));
#84=AXIS2_PLACEMENT_3D('',#81,#82,#83);
#86=CARTESIAN_POINT('',(0.E0,0.E0,8.4E0));
#87=DIRECTION('',(0.E0,0.E0,-1.E0));
#88=DIRECTION('',(-1.E0,0.E0,0.E0));
#89=AXIS2_PLACEMENT_3D('',#86,#87,#88);
#91=CARTESIAN_POINT('',(0.E0,0.E0,8.4E0));
#92=DIRECTION('',(0.E0,0.E0,-1.E0));
#93=DIRECTION('',(1.E0,0.E0,0.E0));
#94=AXIS2_PLACEMENT_3D('',#91,#92,#93);
#96=DIRECTION('',(0.E0,0.E0,-1.E0));
#97=VECTOR('',#96,4.5E0);
#98=CARTESIAN_POINT('',(1.65E1,0.E0,8.4E0));
#99=LINE('',#98,#97);
#100=DIRECTION('',(0.E0,0.E0,1.E0));
#101=VECTOR('',#100,4.5E0);
#102=CARTESIAN_POINT('',(-1.65E1,-1.970279881953E-14,3.9E0));
#103=LINE('',#102,#101);
#104=CARTESIAN_POINT('',(0.E0,0.E0,3.9E0));
#105=DIRECTION('',(0.E0,0.E0,1.E0));
#106=DIRECTION('',(-1.E0,0.E0,0.E0));
#107=AXIS2_PLACEMENT_3D('',#104,#105,#106);
#109=CARTESIAN_POINT('',(0.E0,0.E0,3.9E0));
#110=DIRECTION('',(0.E0,0.E0,1.E0));
#111=DIRECTION('',(1.E0,0.E0,0.E0));
#112=AXIS2_PLACEMENT_3D('',#109,#110,#111);
#114=CARTESIAN_POINT('',(0.E0,0.E0,3.9E0));
#115=DIRECTION('',(0.E0,0.E0,-1.E0));
#116=DIRECTION('',(1.E0,0.E0,0.E0));
#117=AXIS2_PLACEMENT_3D('',#114,#115,#116);
#119=CARTESIAN_POINT('',(0.E0,0.E0,3.9E0));
#120=DIRECTION('',(0.E0,0.E0,-1.E0));
#121=DIRECTION('',(-1.E0,0.E0,0.E0));
#122=AXIS2_PLACEMENT_3D('',#119,#120,#121);
#124=DIRECTION('',(0.E0,0.E0,-1.E0));
#125=VECTOR('',#124,2.4E0);
#126=CARTESIAN_POINT('',(1.75E1,0.E0,3.9E0));
#127=LINE('',#126,#125);
#128=DIRECTION('',(0.E0,0.E0,1.E0));
#129=VECTOR('',#128,2.4E0);
#130=CARTESIAN_POINT('',(-1.75E1,0.E0,1.5E0));
#131=LINE('',#130,#129);
#132=CARTESIAN_POINT('',(0.E0,0.E0,1.5E0));
#133=DIRECTION('',(0.E0,0.E0,1.E0));
#134=DIRECTION('',(1.E0,0.E0,0.E0));
#135=AXIS2_PLACEMENT_3D('',#132,#133,#134);
#137=CARTESIAN_POINT('',(0.E0,0.E0,1.5E0));
#138=DIRECTION('',(0.E0,0.E0,1.E0));
#139=DIRECTION('',(-1.E0,0.E0,0.E0));
#140=AXIS2_PLACEMENT_3D('',#137,#138,#139);
#142=CARTESIAN_POINT('',(0.E0,0.E0,1.5E0));
#143=DIRECTION('',(0.E0,0.E0,-1.E0));
#144=DIRECTION('',(-1.E0,0.E0,0.E0));
#145=AXIS2_PLACEMENT_3D('',#142,#143,#144);
#147=CARTESIAN_POINT('',(0.E0,0.E0,1.5E0));
#148=DIRECTION('',(0.E0,0.E0,-1.E0));
#149=DIRECTION('',(1.E0,0.E0,0.E0));
#150=AXIS2_PLACEMENT_3D('',#147,#148,#149);
#152=DIRECTION('',(0.E0,0.E0,-1.E0));
#153=VECTOR('',#152,4.999999999999E-1);
#154=CARTESIAN_POINT('',(1.665E1,0.E0,1.5E0));
#155=LINE('',#154,#153);
#156=DIRECTION('',(0.E0,2.723747153747E-14,1.E0));
#157=VECTOR('',#156,4.999999999999E-1);
#158=CARTESIAN_POINT('',(-1.665E1,0.E0,1.E0));
#159=LINE('',#158,#157);
#160=CARTESIAN_POINT('',(0.E0,0.E0,1.E0));
#161=DIRECTION('',(0.E0,0.E0,1.E0));
#162=DIRECTION('',(1.E0,0.E0,0.E0));
#163=AXIS2_PLACEMENT_3D('',#160,#161,#162);
#165=CARTESIAN_POINT('',(0.E0,0.E0,1.E0));
#166=DIRECTION('',(0.E0,0.E0,1.E0));
#167=DIRECTION('',(-1.E0,0.E0,0.E0));
#168=AXIS2_PLACEMENT_3D('',#165,#166,#167);
#170=CARTESIAN_POINT('',(0.E0,0.E0,9.999999999999E-1));
#171=DIRECTION('',(0.E0,0.E0,-1.E0));
#172=DIRECTION('',(-1.E0,0.E0,0.E0));
#173=AXIS2_PLACEMENT_3D('',#170,#171,#172);
#175=CARTESIAN_POINT('',(0.E0,0.E0,9.999999999999E-1));
#176=DIRECTION('',(0.E0,0.E0,-1.E0));
#177=DIRECTION('',(1.E0,0.E0,0.E0));
#178=AXIS2_PLACEMENT_3D('',#175,#176,#177);
#180=DIRECTION('',(0.E0,0.E0,-1.E0));
#181=VECTOR('',#180,1.E0);
#182=CARTESIAN_POINT('',(1.5E1,0.E0,1.E0));
#183=LINE('',#182,#181);
#184=DIRECTION('',(0.E0,0.E0,1.E0));
#185=VECTOR('',#184,1.E0);
#186=CARTESIAN_POINT('',(-1.5E1,0.E0,0.E0));
#187=LINE('',#186,#185);
#188=CARTESIAN_POINT('',(0.E0,0.E0,0.E0));
#189=DIRECTION('',(0.E0,0.E0,1.E0));
#190=DIRECTION('',(1.E0,0.E0,0.E0));
#191=AXIS2_PLACEMENT_3D('',#188,#189,#190);
#193=CARTESIAN_POINT('',(0.E0,0.E0,0.E0));
#194=DIRECTION('',(0.E0,0.E0,1.E0));
#195=DIRECTION('',(-1.E0,0.E0,0.E0));
#196=AXIS2_PLACEMENT_3D('',#193,#194,#195);
#198=CARTESIAN_POINT('',(0.E0,0.E0,8.325E0));
#199=DIRECTION('',(0.E0,0.E0,1.E0));
#200=DIRECTION('',(1.E0,0.E0,0.E0));
#201=AXIS2_PLACEMENT_3D('',#198,#199,#200);
#203=CARTESIAN_POINT('',(0.E0,0.E0,8.325E0));
#204=DIRECTION('',(0.E0,0.E0,1.E0));
#205=DIRECTION('',(-1.E0,0.E0,0.E0));
#206=AXIS2_PLACEMENT_3D('',#203,#204,#205);
#208=CARTESIAN_POINT('',(1.505E1,0.E0,8.325E0));
#209=CARTESIAN_POINT('',(1.505E1,0.E0,8.4E0));
#210=VERTEX_POINT('',#208);
#211=VERTEX_POINT('',#209);
#212=CARTESIAN_POINT('',(-1.505E1,-3.108624468950E-14,8.325E0));
#213=VERTEX_POINT('',#212);
#214=CARTESIAN_POINT('',(-1.505E1,0.E0,8.4E0));
#215=VERTEX_POINT('',#214);
#216=CARTESIAN_POINT('',(1.65E1,0.E0,8.4E0));
#217=CARTESIAN_POINT('',(-1.65E1,0.E0,8.4E0));
#218=VERTEX_POINT('',#216);
#219=VERTEX_POINT('',#217);
#220=CARTESIAN_POINT('',(-1.65E1,-1.970279881953E-14,3.9E0));
#221=VERTEX_POINT('',#220);
#222=CARTESIAN_POINT('',(1.65E1,-1.618699038526E-14,3.9E0));
#223=VERTEX_POINT('',#222);
#224=CARTESIAN_POINT('',(1.75E1,0.E0,3.9E0));
#225=CARTESIAN_POINT('',(-1.75E1,0.E0,3.9E0));
#226=VERTEX_POINT('',#224);
#227=VERTEX_POINT('',#225);
#228=CARTESIAN_POINT('',(-1.75E1,0.E0,1.5E0));
#229=VERTEX_POINT('',#228);
#230=CARTESIAN_POINT('',(1.75E1,0.E0,1.5E0));
#231=VERTEX_POINT('',#230);
#232=CARTESIAN_POINT('',(-1.665E1,4.085620730621E-14,1.5E0));
#233=CARTESIAN_POINT('',(1.665E1,0.E0,1.5E0));
#234=VERTEX_POINT('',#232);
#235=VERTEX_POINT('',#233);
#236=CARTESIAN_POINT('',(-1.665E1,0.E0,1.E0));
#237=VERTEX_POINT('',#236);
#238=CARTESIAN_POINT('',(1.665E1,0.E0,1.E0));
#239=VERTEX_POINT('',#238);
#240=CARTESIAN_POINT('',(-1.5E1,0.E0,9.999999999999E-1));
#241=CARTESIAN_POINT('',(1.5E1,0.E0,9.999999999999E-1));
#242=VERTEX_POINT('',#240);
#243=VERTEX_POINT('',#241);
#244=CARTESIAN_POINT('',(-1.5E1,0.E0,0.E0));
#245=VERTEX_POINT('',#244);
#246=CARTESIAN_POINT('',(1.5E1,0.E0,0.E0));
#247=VERTEX_POINT('',#246);
#248=CARTESIAN_POINT('',(0.E0,0.E0,8.325E0));
#249=DIRECTION('',(0.E0,0.E0,1.E0));
#250=DIRECTION('',(1.E0,0.E0,0.E0));
#251=AXIS2_PLACEMENT_3D('',#248,#249,#250);
#252=CYLINDRICAL_SURFACE('',#251,1.505E1);
#254=ORIENTED_EDGE('',*,*,#253,.T.);
#256=ORIENTED_EDGE('',*,*,#255,.T.);
#258=ORIENTED_EDGE('',*,*,#257,.T.);
#260=ORIENTED_EDGE('',*,*,#259,.T.);
#261=EDGE_LOOP('',(#254,#256,#258,#260));
#262=FACE_OUTER_BOUND('',#261,.F.);
#263=ADVANCED_FACE('',(#262),#252,.F.);
#264=FILL_AREA_STYLE_COLOUR('',#30);
#265=FILL_AREA_STYLE('',(#264));
#266=SURFACE_STYLE_FILL_AREA(#265);
#267=SURFACE_SIDE_STYLE('',(#266));
#268=SURFACE_STYLE_USAGE(.POSITIVE.,#267);
#269=FILL_AREA_STYLE_COLOUR('',#62);
#270=FILL_AREA_STYLE('',(#269));
#271=SURFACE_STYLE_FILL_AREA(#270);
#272=SURFACE_SIDE_STYLE('',(#271));
#273=SURFACE_STYLE_USAGE(.NEGATIVE.,#272);
#274=PRESENTATION_STYLE_ASSIGNMENT((#268,#273));
#275=STYLED_ITEM('',(#274),#263);
#276=CARTESIAN_POINT('',(0.E0,0.E0,8.325E0));
#277=DIRECTION('',(0.E0,0.E0,1.E0));
#278=DIRECTION('',(1.E0,0.E0,0.E0));
#279=AXIS2_PLACEMENT_3D('',#276,#277,#278);
#280=CYLINDRICAL_SURFACE('',#279,1.505E1);
#282=ORIENTED_EDGE('',*,*,#281,.T.);
#283=ORIENTED_EDGE('',*,*,#253,.F.);
#285=ORIENTED_EDGE('',*,*,#284,.T.);
#286=ORIENTED_EDGE('',*,*,#257,.F.);
#287=EDGE_LOOP('',(#282,#283,#285,#286));
#288=FACE_OUTER_BOUND('',#287,.F.);
#289=ADVANCED_FACE('',(#288),#280,.F.);
#290=FILL_AREA_STYLE_COLOUR('',#30);
#291=FILL_AREA_STYLE('',(#290));
#292=SURFACE_STYLE_FILL_AREA(#291);
#293=SURFACE_SIDE_STYLE('',(#292));
#294=SURFACE_STYLE_USAGE(.POSITIVE.,#293);
#295=FILL_AREA_STYLE_COLOUR('',#62);
#296=FILL_AREA_STYLE('',(#295));
#297=SURFACE_STYLE_FILL_AREA(#296);
#298=SURFACE_SIDE_STYLE('',(#297));
#299=SURFACE_STYLE_USAGE(.NEGATIVE.,#298);
#300=PRESENTATION_STYLE_ASSIGNMENT((#294,#299));
#301=STYLED_ITEM('',(#300),#289);
#302=CARTESIAN_POINT('',(0.E0,0.E0,8.4E0));
#303=DIRECTION('',(0.E0,0.E0,1.E0));
#304=DIRECTION('',(1.E0,0.E0,0.E0));
#305=AXIS2_PLACEMENT_3D('',#302,#303,#304);
#306=PLANE('',#305);
#308=ORIENTED_EDGE('',*,*,#307,.F.);
#310=ORIENTED_EDGE('',*,*,#309,.F.);
#311=EDGE_LOOP('',(#308,#310));
#312=FACE_OUTER_BOUND('',#311,.F.);
#313=ORIENTED_EDGE('',*,*,#281,.F.);
#314=ORIENTED_EDGE('',*,*,#255,.F.);
#315=EDGE_LOOP('',(#313,#314));
#316=FACE_BOUND('',#315,.F.);
#317=ADVANCED_FACE('',(#312,#316),#306,.T.);
#318=FILL_AREA_STYLE_COLOUR('',#28);
#319=FILL_AREA_STYLE('',(#318));
#320=SURFACE_STYLE_FILL_AREA(#319);
#321=SURFACE_SIDE_STYLE('',(#320));
#322=SURFACE_STYLE_USAGE(.POSITIVE.,#321);
#323=FILL_AREA_STYLE_COLOUR('',#62);
#324=FILL_AREA_STYLE('',(#323));
#325=SURFACE_STYLE_FILL_AREA(#324);
#326=SURFACE_SIDE_STYLE('',(#325));
#327=SURFACE_STYLE_USAGE(.NEGATIVE.,#326);
#328=PRESENTATION_STYLE_ASSIGNMENT((#322,#327));
#329=STYLED_ITEM('',(#328),#317);
#330=CARTESIAN_POINT('',(0.E0,0.E0,8.4E0));
#331=DIRECTION('',(0.E0,0.E0,-1.E0));
#332=DIRECTION('',(-1.E0,0.E0,0.E0));
#333=AXIS2_PLACEMENT_3D('',#330,#331,#332);
#334=CYLINDRICAL_SURFACE('',#333,1.65E1);
#336=ORIENTED_EDGE('',*,*,#335,.T.);
#338=ORIENTED_EDGE('',*,*,#337,.T.);
#340=ORIENTED_EDGE('',*,*,#339,.T.);
#341=ORIENTED_EDGE('',*,*,#307,.T.);
#342=EDGE_LOOP('',(#336,#338,#340,#341));
#343=FACE_OUTER_BOUND('',#342,.F.);
#344=ADVANCED_FACE('',(#343),#334,.T.);
#345=FILL_AREA_STYLE_COLOUR('',#30);
#346=FILL_AREA_STYLE('',(#345));
#347=SURFACE_STYLE_FILL_AREA(#346);
#348=SURFACE_SIDE_STYLE('',(#347));
#349=SURFACE_STYLE_USAGE(.POSITIVE.,#348);
#350=FILL_AREA_STYLE_COLOUR('',#62);
#351=FILL_AREA_STYLE('',(#350));
#352=SURFACE_STYLE_FILL_AREA(#351);
#353=SURFACE_SIDE_STYLE('',(#352));
#354=SURFACE_STYLE_USAGE(.NEGATIVE.,#353);
#355=PRESENTATION_STYLE_ASSIGNMENT((#349,#354));
#356=STYLED_ITEM('',(#355),#344);
#357=CARTESIAN_POINT('',(0.E0,0.E0,8.4E0));
#358=DIRECTION('',(0.E0,0.E0,-1.E0));
#359=DIRECTION('',(-1.E0,0.E0,0.E0));
#360=AXIS2_PLACEMENT_3D('',#357,#358,#359);
#361=CYLINDRICAL_SURFACE('',#360,1.65E1);
#362=ORIENTED_EDGE('',*,*,#309,.T.);
#363=ORIENTED_EDGE('',*,*,#339,.F.);
#365=ORIENTED_EDGE('',*,*,#364,.T.);
#366=ORIENTED_EDGE('',*,*,#335,.F.);
#367=EDGE_LOOP('',(#362,#363,#365,#366));
#368=FACE_OUTER_BOUND('',#367,.F.);
#369=ADVANCED_FACE('',(#368),#361,.T.);
#370=FILL_AREA_STYLE_COLOUR('',#30);
#371=FILL_AREA_STYLE('',(#370));
#372=SURFACE_STYLE_FILL_AREA(#371);
#373=SURFACE_SIDE_STYLE('',(#372));
#374=SURFACE_STYLE_USAGE(.POSITIVE.,#373);
#375=FILL_AREA_STYLE_COLOUR('',#62);
#376=FILL_AREA_STYLE('',(#375));
#377=SURFACE_STYLE_FILL_AREA(#376);
#378=SURFACE_SIDE_STYLE('',(#377));
#379=SURFACE_STYLE_USAGE(.NEGATIVE.,#378);
#380=PRESENTATION_STYLE_ASSIGNMENT((#374,#379));
#381=STYLED_ITEM('',(#380),#369);
#382=CARTESIAN_POINT('',(0.E0,-1.687538997430E-14,3.9E0));
#383=DIRECTION('',(0.E0,0.E0,1.E0));
#384=DIRECTION('',(1.E0,0.E0,0.E0));
#385=AXIS2_PLACEMENT_3D('',#382,#383,#384);
#386=PLANE('',#385);
#388=ORIENTED_EDGE('',*,*,#387,.F.);
#390=ORIENTED_EDGE('',*,*,#389,.F.);
#391=EDGE_LOOP('',(#388,#390));
#392=FACE_OUTER_BOUND('',#391,.F.);
#393=ORIENTED_EDGE('',*,*,#337,.F.);
#394=ORIENTED_EDGE('',*,*,#364,.F.);
#395=EDGE_LOOP('',(#393,#394));
#396=FACE_BOUND('',#395,.F.);
#397=ADVANCED_FACE('',(#392,#396),#386,.T.);
#398=FILL_AREA_STYLE_COLOUR('',#29);
#399=FILL_AREA_STYLE('',(#398));
#400=SURFACE_STYLE_FILL_AREA(#399);
#401=SURFACE_SIDE_STYLE('',(#400));
#402=SURFACE_STYLE_USAGE(.POSITIVE.,#401);
#403=FILL_AREA_STYLE_COLOUR('',#62);
#404=FILL_AREA_STYLE('',(#403));
#405=SURFACE_STYLE_FILL_AREA(#404);
#406=SURFACE_SIDE_STYLE('',(#405));
#407=SURFACE_STYLE_USAGE(.NEGATIVE.,#406);
#408=PRESENTATION_STYLE_ASSIGNMENT((#402,#407));
#409=STYLED_ITEM('',(#408),#397);
#410=CARTESIAN_POINT('',(0.E0,0.E0,3.9E0));
#411=DIRECTION('',(0.E0,0.E0,-1.E0));
#412=DIRECTION('',(-1.E0,0.E0,0.E0));
#413=AXIS2_PLACEMENT_3D('',#410,#411,#412);
#414=CYLINDRICAL_SURFACE('',#413,1.75E1);
#416=ORIENTED_EDGE('',*,*,#415,.T.);
#418=ORIENTED_EDGE('',*,*,#417,.F.);
#420=ORIENTED_EDGE('',*,*,#419,.T.);
#421=ORIENTED_EDGE('',*,*,#387,.T.);
#422=EDGE_LOOP('',(#416,#418,#420,#421));
#423=FACE_OUTER_BOUND('',#422,.F.);
#424=ADVANCED_FACE('',(#423),#414,.T.);
#425=FILL_AREA_STYLE_COLOUR('',#28);
#426=FILL_AREA_STYLE('',(#425));
#427=SURFACE_STYLE_FILL_AREA(#426);
#428=SURFACE_SIDE_STYLE('',(#427));
#429=SURFACE_STYLE_USAGE(.POSITIVE.,#428);
#430=FILL_AREA_STYLE_COLOUR('',#62);
#431=FILL_AREA_STYLE('',(#430));
#432=SURFACE_STYLE_FILL_AREA(#431);
#433=SURFACE_SIDE_STYLE('',(#432));
#434=SURFACE_STYLE_USAGE(.NEGATIVE.,#433);
#435=PRESENTATION_STYLE_ASSIGNMENT((#429,#434));
#436=STYLED_ITEM('',(#435),#424);
#437=CARTESIAN_POINT('',(0.E0,0.E0,3.9E0));
#438=DIRECTION('',(0.E0,0.E0,-1.E0));
#439=DIRECTION('',(-1.E0,0.E0,0.E0));
#440=AXIS2_PLACEMENT_3D('',#437,#438,#439);
#441=CYLINDRICAL_SURFACE('',#440,1.75E1);
#442=ORIENTED_EDGE('',*,*,#389,.T.);
#443=ORIENTED_EDGE('',*,*,#419,.F.);
#445=ORIENTED_EDGE('',*,*,#444,.F.);
#446=ORIENTED_EDGE('',*,*,#415,.F.);
#447=EDGE_LOOP('',(#442,#443,#445,#446));
#448=FACE_OUTER_BOUND('',#447,.F.);
#449=ADVANCED_FACE('',(#448),#441,.T.);
#450=FILL_AREA_STYLE_COLOUR('',#28);
#451=FILL_AREA_STYLE('',(#450));
#452=SURFACE_STYLE_FILL_AREA(#451);
#453=SURFACE_SIDE_STYLE('',(#452));
#454=SURFACE_STYLE_USAGE(.POSITIVE.,#453);
#455=FILL_AREA_STYLE_COLOUR('',#62);
#456=FILL_AREA_STYLE('',(#455));
#457=SURFACE_STYLE_FILL_AREA(#456);
#458=SURFACE_SIDE_STYLE('',(#457));
#459=SURFACE_STYLE_USAGE(.NEGATIVE.,#458);
#460=PRESENTATION_STYLE_ASSIGNMENT((#454,#459));
#461=STYLED_ITEM('',(#460),#449);
#462=CARTESIAN_POINT('',(0.E0,-2.398081733190E-14,1.5E0));
#463=DIRECTION('',(0.E0,0.E0,1.E0));
#464=DIRECTION('',(1.E0,0.E0,0.E0));
#465=AXIS2_PLACEMENT_3D('',#462,#463,#464);
#466=PLANE('',#465);
#467=ORIENTED_EDGE('',*,*,#444,.T.);
#468=ORIENTED_EDGE('',*,*,#417,.T.);
#469=EDGE_LOOP('',(#467,#468));
#470=FACE_OUTER_BOUND('',#469,.F.);
#472=ORIENTED_EDGE('',*,*,#471,.T.);
#474=ORIENTED_EDGE('',*,*,#473,.T.);
#475=EDGE_LOOP('',(#472,#474));
#476=FACE_BOUND('',#475,.F.);
#477=ADVANCED_FACE('',(#470,#476),#466,.F.);
#478=FILL_AREA_STYLE_COLOUR('',#31);
#479=FILL_AREA_STYLE('',(#478));
#480=SURFACE_STYLE_FILL_AREA(#479);
#481=SURFACE_SIDE_STYLE('',(#480));
#482=SURFACE_STYLE_USAGE(.POSITIVE.,#481);
#483=FILL_AREA_STYLE_COLOUR('',#62);
#484=FILL_AREA_STYLE('',(#483));
#485=SURFACE_STYLE_FILL_AREA(#484);
#486=SURFACE_SIDE_STYLE('',(#485));
#487=SURFACE_STYLE_USAGE(.NEGATIVE.,#486);
#488=PRESENTATION_STYLE_ASSIGNMENT((#482,#487));
#489=STYLED_ITEM('',(#488),#477);
#490=CARTESIAN_POINT('',(0.E0,0.E0,1.5E0));
#491=DIRECTION('',(0.E0,0.E0,-1.E0));
#492=DIRECTION('',(-1.E0,0.E0,0.E0));
#493=AXIS2_PLACEMENT_3D('',#490,#491,#492);
#494=CYLINDRICAL_SURFACE('',#493,1.665E1);
#495=ORIENTED_EDGE('',*,*,#471,.F.);
#497=ORIENTED_EDGE('',*,*,#496,.F.);
#499=ORIENTED_EDGE('',*,*,#498,.F.);
#501=ORIENTED_EDGE('',*,*,#500,.F.);
#502=EDGE_LOOP('',(#495,#497,#499,#501));
#503=FACE_OUTER_BOUND('',#502,.F.);
#504=ADVANCED_FACE('',(#503),#494,.T.);
#505=FILL_AREA_STYLE_COLOUR('',#31);
#506=FILL_AREA_STYLE('',(#505));
#507=SURFACE_STYLE_FILL_AREA(#506);
#508=SURFACE_SIDE_STYLE('',(#507));
#509=SURFACE_STYLE_USAGE(.POSITIVE.,#508);
#510=FILL_AREA_STYLE_COLOUR('',#62);
#511=FILL_AREA_STYLE('',(#510));
#512=SURFACE_STYLE_FILL_AREA(#511);
#513=SURFACE_SIDE_STYLE('',(#512));
#514=SURFACE_STYLE_USAGE(.NEGATIVE.,#513);
#515=PRESENTATION_STYLE_ASSIGNMENT((#509,#514));
#516=STYLED_ITEM('',(#515),#504);
#517=CARTESIAN_POINT('',(0.E0,0.E0,1.5E0));
#518=DIRECTION('',(0.E0,0.E0,-1.E0));
#519=DIRECTION('',(-1.E0,0.E0,0.E0));
#520=AXIS2_PLACEMENT_3D('',#517,#518,#519);
#521=CYLINDRICAL_SURFACE('',#520,1.665E1);
#522=ORIENTED_EDGE('',*,*,#500,.T.);
#524=ORIENTED_EDGE('',*,*,#523,.F.);
#525=ORIENTED_EDGE('',*,*,#496,.T.);
#526=ORIENTED_EDGE('',*,*,#473,.F.);
#527=EDGE_LOOP('',(#522,#524,#525,#526));
#528=FACE_OUTER_BOUND('',#527,.F.);
#529=ADVANCED_FACE('',(#528),#521,.T.);
#530=FILL_AREA_STYLE_COLOUR('',#31);
#531=FILL_AREA_STYLE('',(#530));
#532=SURFACE_STYLE_FILL_AREA(#531);
#533=SURFACE_SIDE_STYLE('',(#532));
#534=SURFACE_STYLE_USAGE(.POSITIVE.,#533);
#535=FILL_AREA_STYLE_COLOUR('',#62);
#536=FILL_AREA_STYLE('',(#535));
#537=SURFACE_STYLE_FILL_AREA(#536);
#538=SURFACE_SIDE_STYLE('',(#537));
#539=SURFACE_STYLE_USAGE(.NEGATIVE.,#538);
#540=PRESENTATION_STYLE_ASSIGNMENT((#534,#539));
#541=STYLED_ITEM('',(#540),#529);
#542=CARTESIAN_POINT('',(0.E0,0.E0,1.E0));
#543=DIRECTION('',(0.E0,0.E0,1.E0));
#544=DIRECTION('',(1.E0,0.E0,0.E0));
#545=AXIS2_PLACEMENT_3D('',#542,#543,#544);
#546=PLANE('',#545);
#547=ORIENTED_EDGE('',*,*,#498,.T.);
#548=ORIENTED_EDGE('',*,*,#523,.T.);
#549=EDGE_LOOP('',(#547,#548));
#550=FACE_OUTER_BOUND('',#549,.F.);
#552=ORIENTED_EDGE('',*,*,#551,.T.);
#554=ORIENTED_EDGE('',*,*,#553,.T.);
#555=EDGE_LOOP('',(#552,#554));
#556=FACE_BOUND('',#555,.F.);
#557=ADVANCED_FACE('',(#550,#556),#546,.F.);
#558=FILL_AREA_STYLE_COLOUR('',#31);
#559=FILL_AREA_STYLE('',(#558));
#560=SURFACE_STYLE_FILL_AREA(#559);
#561=SURFACE_SIDE_STYLE('',(#560));
#562=SURFACE_STYLE_USAGE(.POSITIVE.,#561);
#563=FILL_AREA_STYLE_COLOUR('',#62);
#564=FILL_AREA_STYLE('',(#563));
#565=SURFACE_STYLE_FILL_AREA(#564);
#566=SURFACE_SIDE_STYLE('',(#565));
#567=SURFACE_STYLE_USAGE(.NEGATIVE.,#566);
#568=PRESENTATION_STYLE_ASSIGNMENT((#562,#567));
#569=STYLED_ITEM('',(#568),#557);
#570=CARTESIAN_POINT('',(0.E0,0.E0,1.E0));
#571=DIRECTION('',(0.E0,0.E0,-1.E0));
#572=DIRECTION('',(-1.E0,0.E0,0.E0));
#573=AXIS2_PLACEMENT_3D('',#570,#571,#572);
#574=CYLINDRICAL_SURFACE('',#573,1.5E1);
#575=ORIENTED_EDGE('',*,*,#551,.F.);
#577=ORIENTED_EDGE('',*,*,#576,.F.);
#579=ORIENTED_EDGE('',*,*,#578,.F.);
#581=ORIENTED_EDGE('',*,*,#580,.F.);
#582=EDGE_LOOP('',(#575,#577,#579,#581));
#583=FACE_OUTER_BOUND('',#582,.F.);
#584=ADVANCED_FACE('',(#583),#574,.T.);
#585=FILL_AREA_STYLE_COLOUR('',#31);
#586=FILL_AREA_STYLE('',(#585));
#587=SURFACE_STYLE_FILL_AREA(#586);
#588=SURFACE_SIDE_STYLE('',(#587));
#589=SURFACE_STYLE_USAGE(.POSITIVE.,#588);
#590=FILL_AREA_STYLE_COLOUR('',#62);
#591=FILL_AREA_STYLE('',(#590));
#592=SURFACE_STYLE_FILL_AREA(#591);
#593=SURFACE_SIDE_STYLE('',(#592));
#594=SURFACE_STYLE_USAGE(.NEGATIVE.,#593);
#595=PRESENTATION_STYLE_ASSIGNMENT((#589,#594));
#596=STYLED_ITEM('',(#595),#584);
#597=CARTESIAN_POINT('',(0.E0,0.E0,1.E0));
#598=DIRECTION('',(0.E0,0.E0,-1.E0));
#599=DIRECTION('',(-1.E0,0.E0,0.E0));
#600=AXIS2_PLACEMENT_3D('',#597,#598,#599);
#601=CYLINDRICAL_SURFACE('',#600,1.5E1);
#602=ORIENTED_EDGE('',*,*,#580,.T.);
#604=ORIENTED_EDGE('',*,*,#603,.F.);
#605=ORIENTED_EDGE('',*,*,#576,.T.);
#606=ORIENTED_EDGE('',*,*,#553,.F.);
#607=EDGE_LOOP('',(#602,#604,#605,#606));
#608=FACE_OUTER_BOUND('',#607,.F.);
#609=ADVANCED_FACE('',(#608),#601,.T.);
#610=FILL_AREA_STYLE_COLOUR('',#31);
#611=FILL_AREA_STYLE('',(#610));
#612=SURFACE_STYLE_FILL_AREA(#611);
#613=SURFACE_SIDE_STYLE('',(#612));
#614=SURFACE_STYLE_USAGE(.POSITIVE.,#613);
#615=FILL_AREA_STYLE_COLOUR('',#62);
#616=FILL_AREA_STYLE('',(#615));
#617=SURFACE_STYLE_FILL_AREA(#616);
#618=SURFACE_SIDE_STYLE('',(#617));
#619=SURFACE_STYLE_USAGE(.NEGATIVE.,#618);
#620=PRESENTATION_STYLE_ASSIGNMENT((#614,#619));
#621=STYLED_ITEM('',(#620),#609);
#622=CARTESIAN_POINT('',(0.E0,0.E0,0.E0));
#623=DIRECTION('',(0.E0,0.E0,1.E0));
#624=DIRECTION('',(1.E0,0.E0,0.E0));
#625=AXIS2_PLACEMENT_3D('',#622,#623,#624);
#626=PLANE('',#625);
#627=ORIENTED_EDGE('',*,*,#578,.T.);
#628=ORIENTED_EDGE('',*,*,#603,.T.);
#629=EDGE_LOOP('',(#627,#628));
#630=FACE_OUTER_BOUND('',#629,.F.);
#631=ADVANCED_FACE('',(#630),#626,.F.);
#632=FILL_AREA_STYLE_COLOUR('',#31);
#633=FILL_AREA_STYLE('',(#632));
#634=SURFACE_STYLE_FILL_AREA(#633);
#635=SURFACE_SIDE_STYLE('',(#634));
#636=SURFACE_STYLE_USAGE(.POSITIVE.,#635);
#637=FILL_AREA_STYLE_COLOUR('',#62);
#638=FILL_AREA_STYLE('',(#637));
#639=SURFACE_STYLE_FILL_AREA(#638);
#640=SURFACE_SIDE_STYLE('',(#639));
#641=SURFACE_STYLE_USAGE(.NEGATIVE.,#640);
#642=PRESENTATION_STYLE_ASSIGNMENT((#636,#641));
#643=STYLED_ITEM('',(#642),#631);
#644=CARTESIAN_POINT('',(0.E0,0.E0,8.325E0));
#645=DIRECTION('',(0.E0,0.E0,1.E0));
#646=DIRECTION('',(1.E0,0.E0,0.E0));
#647=AXIS2_PLACEMENT_3D('',#644,#645,#646);
#648=PLANE('',#647);
#649=ORIENTED_EDGE('',*,*,#284,.F.);
#650=ORIENTED_EDGE('',*,*,#259,.F.);
#651=EDGE_LOOP('',(#649,#650));
#652=FACE_OUTER_BOUND('',#651,.F.);
#653=ADVANCED_FACE('',(#652),#648,.T.);
#654=FILL_AREA_STYLE_COLOUR('',#28);
#655=FILL_AREA_STYLE('',(#654));
#656=SURFACE_STYLE_FILL_AREA(#655);
#657=SURFACE_SIDE_STYLE('',(#656));
#658=SURFACE_STYLE_USAGE(.POSITIVE.,#657);
#659=FILL_AREA_STYLE_COLOUR('',#62);
#660=FILL_AREA_STYLE('',(#659));
#661=SURFACE_STYLE_FILL_AREA(#660);
#662=SURFACE_SIDE_STYLE('',(#661));
#663=SURFACE_STYLE_USAGE(.NEGATIVE.,#662);
#664=PRESENTATION_STYLE_ASSIGNMENT((#658,#663));
#665=STYLED_ITEM('',(#664),#653);
#666=CLOSED_SHELL('',(#263,#289,#317,#344,#369,#397,#424,#449,#477,#504,#529,
#557,#584,#609,#631,#653));
#667=MANIFOLD_SOLID_BREP('',#666);
#669=DIMENSIONAL_EXPONENTS(0.E0,0.E0,0.E0,0.E0,0.E0,0.E0,0.E0);
#671=PLANE_ANGLE_MEASURE_WITH_UNIT(PLANE_ANGLE_MEASURE(1.745329251994E-2),#670);
#672=(CONVERSION_BASED_UNIT('DEGREE',#671)NAMED_UNIT(*)PLANE_ANGLE_UNIT());
#674=UNCERTAINTY_MEASURE_WITH_UNIT(LENGTH_MEASURE(5.021991464371E-3),#668,
'closure',
'Maximum model space distance between geometric entities at asserted connectivities');
#675=(GEOMETRIC_REPRESENTATION_CONTEXT(3)GLOBAL_UNCERTAINTY_ASSIGNED_CONTEXT((
#674))GLOBAL_UNIT_ASSIGNED_CONTEXT((#668,#672,#673))REPRESENTATION_CONTEXT
('ID1','3'));
#677=MECHANICAL_DESIGN_GEOMETRIC_PRESENTATION_REPRESENTATION('',(#275,#301,#329,
#356,#381,#409,#436,#461,#489,#516,#541,#569,#596,#621,#643,#665),#675);
#678=APPLICATION_CONTEXT(
'CONFIGURATION CONTROLLED 3D DESIGNS OF MECHANICAL PARTS AND ASSEMBLIES');
#679=APPLICATION_PROTOCOL_DEFINITION('international standard',
'config_control_design',1994,#678);
#680=DESIGN_CONTEXT('',#678,'design');
#681=MECHANICAL_CONTEXT('',#678,'mechanical');
#682=PRODUCT('DBCAD2608_REF-MH20','DBCAD2608_REF-MH20','NOT SPECIFIED',(#681));
#683=PRODUCT_DEFINITION_FORMATION_WITH_SPECIFIED_SOURCE('1','LAST_VERSION',#682,
.MADE.);
#687=PRODUCT_CATEGORY('part','');
#688=PRODUCT_RELATED_PRODUCT_CATEGORY('detail','',(#682));
#689=PRODUCT_CATEGORY_RELATIONSHIP('','',#687,#688);
#690=SECURITY_CLASSIFICATION_LEVEL('unclassified');
#691=SECURITY_CLASSIFICATION('','',#690);
#692=CC_DESIGN_SECURITY_CLASSIFICATION(#691,(#683));
#693=APPROVAL_STATUS('approved');
#694=APPROVAL(#693,'');
#695=CC_DESIGN_APPROVAL(#694,(#691,#683,#684));
#696=CALENDAR_DATE(117,8,6);
#697=COORDINATED_UNIVERSAL_TIME_OFFSET(2,0,.AHEAD.);
#698=LOCAL_TIME(12,24,1.E0,#697);
#699=DATE_AND_TIME(#696,#698);
#700=APPROVAL_DATE_TIME(#699,#694);
#701=DATE_TIME_ROLE('creation_date');
#702=CC_DESIGN_DATE_AND_TIME_ASSIGNMENT(#699,#701,(#684));
#703=DATE_TIME_ROLE('classification_date');
#704=CC_DESIGN_DATE_AND_TIME_ASSIGNMENT(#699,#703,(#691));
#705=PERSON('UNSPECIFIED','UNSPECIFIED',$,$,$,$);
#706=ORGANIZATION('UNSPECIFIED','UNSPECIFIED','UNSPECIFIED');
#707=PERSON_AND_ORGANIZATION(#705,#706);
#708=APPROVAL_ROLE('approver');
#709=APPROVAL_PERSON_ORGANIZATION(#707,#694,#708);
#710=PERSON_AND_ORGANIZATION_ROLE('creator');
#711=CC_DESIGN_PERSON_AND_ORGANIZATION_ASSIGNMENT(#707,#710,(#683,#684));
#712=PERSON_AND_ORGANIZATION_ROLE('design_supplier');
#713=CC_DESIGN_PERSON_AND_ORGANIZATION_ASSIGNMENT(#707,#712,(#683));
#714=PERSON_AND_ORGANIZATION_ROLE('classification_officer');
#715=CC_DESIGN_PERSON_AND_ORGANIZATION_ASSIGNMENT(#707,#714,(#691));
#716=PERSON_AND_ORGANIZATION_ROLE('design_owner');
#717=CC_DESIGN_PERSON_AND_ORGANIZATION_ASSIGNMENT(#707,#716,(#682));
#1=COLOUR_RGB('',0.E0,0.E0,1.96E-1);
#2=COLOUR_RGB('',0.E0,0.E0,3.14E-1);
#3=COLOUR_RGB('',0.E0,1.96E-1,0.E0);
#4=COLOUR_RGB('',0.E0,3.14E-1,0.E0);
#5=COLOUR_RGB('',7.8E-2,7.8E-2,7.8E-2);
#6=COLOUR_RGB('',1.18E-1,1.18E-1,4.71E-1);
#7=COLOUR_RGB('',1.57E-1,1.57E-1,1.57E-1);
#8=COLOUR_RGB('',1.96E-1,0.E0,0.E0);
#9=COLOUR_RGB('',1.96E-1,0.E0,1.96E-1);
#10=COLOUR_RGB('',1.96E-1,5.88E-1,1.96E-1);
#11=COLOUR_RGB('',2.35E-1,2.35E-1,2.35E-1);
#12=COLOUR_RGB('',2.35E-1,2.35E-1,5.88E-1);
#13=COLOUR_RGB('',3.14E-1,3.14E-1,3.14E-1);
#14=COLOUR_RGB('',3.27543E-1,1.E0,6.33116E-1);
#15=COLOUR_RGB('',3.27543E-1,1.E0,6.33116E-1);
#16=COLOUR_RGB('',3.27543E-1,1.E0,6.33116E-1);
#17=COLOUR_RGB('',3.27543E-1,1.E0,6.33116E-1);
#18=COLOUR_RGB('',3.27543E-1,1.E0,6.33116E-1);
#19=COLOUR_RGB('',3.27543E-1,1.E0,6.33116E-1);
#20=COLOUR_RGB('',3.27543E-1,1.E0,6.33116E-1);
#21=COLOUR_RGB('',3.27543E-1,1.E0,6.33116E-1);
#22=COLOUR_RGB('',3.27543E-1,1.E0,6.33116E-1);
#23=COLOUR_RGB('',3.27543E-1,1.E0,6.33116E-1);
#24=COLOUR_RGB('',3.27543E-1,1.E0,6.33116E-1);
#25=COLOUR_RGB('',3.27543E-1,1.E0,6.33116E-1);
#26=COLOUR_RGB('',3.27543E-1,1.E0,6.33116E-1);
#27=COLOUR_RGB('',3.27543E-1,1.E0,6.33116E-1);
#28=COLOUR_RGB('',3.27543E-1,1.E0,6.33116E-1);
#29=COLOUR_RGB('',3.27543E-1,1.E0,6.33116E-1);
#30=COLOUR_RGB('',3.27543E-1,1.E0,6.33116E-1);
#31=COLOUR_RGB('',3.27543E-1,1.E0,6.33116E-1);
#32=COLOUR_RGB('',3.27543E-1,1.E0,6.33116E-1);
#33=COLOUR_RGB('',3.27543E-1,1.E0,6.33116E-1);
#34=COLOUR_RGB('',3.27543E-1,1.E0,6.33116E-1);
#35=COLOUR_RGB('',3.27543E-1,1.E0,6.33116E-1);
#36=COLOUR_RGB('',3.27543E-1,1.E0,6.33116E-1);
#37=COLOUR_RGB('',3.27543E-1,1.E0,6.33116E-1);
#38=COLOUR_RGB('',3.27543E-1,1.E0,6.33116E-1);
#39=COLOUR_RGB('',3.27543E-1,1.E0,6.33116E-1);
#40=COLOUR_RGB('',3.27543E-1,1.E0,6.33116E-1);
#41=COLOUR_RGB('',3.27543E-1,1.E0,6.33116E-1);
#42=COLOUR_RGB('',3.27543E-1,1.E0,6.33116E-1);
#43=COLOUR_RGB('',3.27543E-1,1.E0,6.33116E-1);
#44=COLOUR_RGB('',3.27543E-1,1.E0,6.33116E-1);
#45=COLOUR_RGB('',3.27543E-1,1.E0,6.33116E-1);
#46=COLOUR_RGB('',3.27543E-1,1.E0,6.33116E-1);
#47=COLOUR_RGB('',3.27543E-1,1.E0,6.33116E-1);
#48=COLOUR_RGB('',3.27543E-1,1.E0,6.33116E-1);
#49=COLOUR_RGB('',3.92E-1,0.E0,0.E0);
#50=COLOUR_RGB('',3.92E-1,0.E0,3.92E-1);
#51=COLOUR_RGB('',3.92E-1,3.92E-1,3.92E-1);
#52=COLOUR_RGB('',3.92E-1,3.92E-1,8.63E-1);
#53=COLOUR_RGB('',3.92E-1,5.88E-1,3.92E-1);
#54=COLOUR_RGB('',3.92E-1,5.88E-1,8.63E-1);
#55=COLOUR_RGB('',5.01961E-1,1.E0,5.01961E-1);
#56=COLOUR_RGB('',5.5E-1,5.6E-1,7.E-1);
#57=COLOUR_RGB('',5.88E-1,5.88E-1,5.88E-1);
#58=COLOUR_RGB('',5.88E-1,7.84E-1,5.88E-1);
#59=COLOUR_RGB('',6.2E-1,3.1E-1,6.5E-1);
#60=COLOUR_RGB('',6.8E-1,8.5E-1,1.E0);
#61=COLOUR_RGB('',6.952E-1,7.426E-1,7.9E-1);
#62=COLOUR_RGB('',7.960784313725E-1,8.235294117647E-1,9.372549019608E-1);
#63=COLOUR_RGB('',9.8E-1,3.92E-1,0.E0);
#64=COLOUR_RGB('',9.8E-1,5.88E-1,0.E0);
#65=COLOUR_RGB('',9.8E-1,7.84E-1,0.E0);
#66=COLOUR_RGB('',1.E0,3.7E-1,3.8E-1);
#67=DRAUGHTING_PRE_DEFINED_COLOUR('white');
#80=CIRCLE('',#79,1.65E1);
#85=CIRCLE('',#84,1.65E1);
#90=CIRCLE('',#89,1.505E1);
#95=CIRCLE('',#94,1.505E1);
#108=CIRCLE('',#107,1.75E1);
#113=CIRCLE('',#112,1.75E1);
#118=CIRCLE('',#117,1.65E1);
#123=CIRCLE('',#122,1.65E1);
#136=CIRCLE('',#135,1.75E1);
#141=CIRCLE('',#140,1.75E1);
#146=CIRCLE('',#145,1.665E1);
#151=CIRCLE('',#150,1.665E1);
#164=CIRCLE('',#163,1.665E1);
#169=CIRCLE('',#168,1.665E1);
#174=CIRCLE('',#173,1.5E1);
#179=CIRCLE('',#178,1.5E1);
#192=CIRCLE('',#191,1.5E1);
#197=CIRCLE('',#196,1.5E1);
#202=CIRCLE('',#201,1.505E1);
#207=CIRCLE('',#206,1.505E1);
#253=EDGE_CURVE('',#210,#211,#71,.T.);
#255=EDGE_CURVE('',#211,#215,#95,.T.);
#257=EDGE_CURVE('',#215,#213,#75,.T.);
#259=EDGE_CURVE('',#213,#210,#207,.T.);
#281=EDGE_CURVE('',#215,#211,#90,.T.);
#284=EDGE_CURVE('',#210,#213,#202,.T.);
#307=EDGE_CURVE('',#219,#218,#80,.T.);
#309=EDGE_CURVE('',#218,#219,#85,.T.);
#335=EDGE_CURVE('',#218,#223,#99,.T.);
#337=EDGE_CURVE('',#223,#221,#118,.T.);
#339=EDGE_CURVE('',#221,#219,#103,.T.);
#364=EDGE_CURVE('',#221,#223,#123,.T.);
#387=EDGE_CURVE('',#227,#226,#108,.T.);
#389=EDGE_CURVE('',#226,#227,#113,.T.);
#415=EDGE_CURVE('',#226,#231,#127,.T.);
#417=EDGE_CURVE('',#229,#231,#141,.T.);
#419=EDGE_CURVE('',#229,#227,#131,.T.);
#444=EDGE_CURVE('',#231,#229,#136,.T.);
#471=EDGE_CURVE('',#234,#235,#146,.T.);
#473=EDGE_CURVE('',#235,#234,#151,.T.);
#496=EDGE_CURVE('',#237,#234,#159,.T.);
#498=EDGE_CURVE('',#239,#237,#164,.T.);
#500=EDGE_CURVE('',#235,#239,#155,.T.);
#523=EDGE_CURVE('',#237,#239,#169,.T.);
#551=EDGE_CURVE('',#242,#243,#174,.T.);
#553=EDGE_CURVE('',#243,#242,#179,.T.);
#576=EDGE_CURVE('',#245,#242,#187,.T.);
#578=EDGE_CURVE('',#247,#245,#192,.T.);
#580=EDGE_CURVE('',#243,#247,#183,.T.);
#603=EDGE_CURVE('',#245,#247,#197,.T.);
#668=(LENGTH_UNIT()NAMED_UNIT(*)SI_UNIT(.MILLI.,.METRE.));
#670=(NAMED_UNIT(*)PLANE_ANGLE_UNIT()SI_UNIT($,.RADIAN.));
#673=(NAMED_UNIT(*)SI_UNIT($,.STERADIAN.)SOLID_ANGLE_UNIT());
#676=ADVANCED_BREP_SHAPE_REPRESENTATION('',(#667),#675);
#684=PRODUCT_DEFINITION('design','',#683,#680);
#685=PRODUCT_DEFINITION_SHAPE('','SHAPE FOR DBCAD2608_REF-MH20.',#684);
#686=SHAPE_DEFINITION_REPRESENTATION(#685,#676);
ENDSEC;
END-ISO-10303-21;
