ISO-10303-21;
HEADER;
FILE_DESCRIPTION((''),'2;1');
FILE_NAME('DBCAD2611_REF-A35','2017-06-08T',('cmozuch'),(''),
'PRO/ENGINEER BY PARAMETRIC TECHNOLOGY CORPORATION, 2015440',
'PRO/ENGINEER BY PARAMETRIC TECHNOLOGY CORPORATION, 2015440','');
FILE_SCHEMA(('CONFIG_CONTROL_DESIGN'));
ENDSEC;
DATA;
#81=DIRECTION('',(0.E0,0.E0,-1.E0));
#82=VECTOR('',#81,3.3E0);
#83=CARTESIAN_POINT('',(-5.E0,-2.5E1,3.3E0));
#84=LINE('',#83,#82);
#85=DIRECTION('',(1.E0,0.E0,0.E0));
#86=VECTOR('',#85,1.E0);
#87=CARTESIAN_POINT('',(4.E0,-2.5E1,0.E0));
#88=LINE('',#87,#86);
#89=DIRECTION('',(1.E0,0.E0,0.E0));
#90=VECTOR('',#89,1.E0);
#91=CARTESIAN_POINT('',(-5.E0,-2.5E1,0.E0));
#92=LINE('',#91,#90);
#93=DIRECTION('',(0.E0,-1.E0,0.E0));
#94=VECTOR('',#93,5.E1);
#95=CARTESIAN_POINT('',(-5.E0,2.5E1,0.E0));
#96=LINE('',#95,#94);
#97=DIRECTION('',(0.E0,0.E0,-1.E0));
#98=VECTOR('',#97,3.3E0);
#99=CARTESIAN_POINT('',(5.E0,2.5E1,3.3E0));
#100=LINE('',#99,#98);
#101=DIRECTION('',(0.E0,0.E0,1.E0));
#102=VECTOR('',#101,3.3E0);
#103=CARTESIAN_POINT('',(-5.E0,2.5E1,0.E0));
#104=LINE('',#103,#102);
#105=DIRECTION('',(-1.E0,0.E0,0.E0));
#106=VECTOR('',#105,1.E0);
#107=CARTESIAN_POINT('',(-4.E0,2.5E1,0.E0));
#108=LINE('',#107,#106);
#109=DIRECTION('',(-1.E0,0.E0,0.E0));
#110=VECTOR('',#109,1.E0);
#111=CARTESIAN_POINT('',(5.E0,2.5E1,0.E0));
#112=LINE('',#111,#110);
#113=DIRECTION('',(0.E0,0.E0,-1.E0));
#114=VECTOR('',#113,3.3E0);
#115=CARTESIAN_POINT('',(5.E0,-2.5E1,3.3E0));
#116=LINE('',#115,#114);
#117=DIRECTION('',(0.E0,1.E0,0.E0));
#118=VECTOR('',#117,5.E1);
#119=CARTESIAN_POINT('',(5.E0,-2.5E1,0.E0));
#120=LINE('',#119,#118);
#121=DIRECTION('',(0.E0,1.E0,0.E0));
#122=VECTOR('',#121,5.E1);
#123=CARTESIAN_POINT('',(-5.E0,-2.5E1,3.3E0));
#124=LINE('',#123,#122);
#125=DIRECTION('',(1.E0,0.E0,0.E0));
#126=VECTOR('',#125,1.E1);
#127=CARTESIAN_POINT('',(-5.E0,2.5E1,3.3E0));
#128=LINE('',#127,#126);
#129=DIRECTION('',(0.E0,-1.E0,0.E0));
#130=VECTOR('',#129,5.E1);
#131=CARTESIAN_POINT('',(5.E0,2.5E1,3.3E0));
#132=LINE('',#131,#130);
#133=DIRECTION('',(-1.E0,0.E0,0.E0));
#134=VECTOR('',#133,1.E1);
#135=CARTESIAN_POINT('',(5.E0,-2.5E1,3.3E0));
#136=LINE('',#135,#134);
#137=DIRECTION('',(0.E0,-1.E0,0.E0));
#138=VECTOR('',#137,4.56E1);
#139=CARTESIAN_POINT('',(-4.15E0,2.28E1,3.3E0));
#140=LINE('',#139,#138);
#141=DIRECTION('',(0.E0,0.E0,-1.E0));
#142=VECTOR('',#141,7.5E-2);
#143=CARTESIAN_POINT('',(-4.15E0,2.28E1,3.3E0));
#144=LINE('',#143,#142);
#145=DIRECTION('',(-1.E0,0.E0,0.E0));
#146=VECTOR('',#145,8.3E0);
#147=CARTESIAN_POINT('',(4.15E0,2.28E1,3.3E0));
#148=LINE('',#147,#146);
#149=DIRECTION('',(0.E0,0.E0,-1.E0));
#150=VECTOR('',#149,7.5E-2);
#151=CARTESIAN_POINT('',(4.15E0,2.28E1,3.3E0));
#152=LINE('',#151,#150);
#153=DIRECTION('',(0.E0,1.E0,0.E0));
#154=VECTOR('',#153,4.56E1);
#155=CARTESIAN_POINT('',(4.15E0,-2.28E1,3.3E0));
#156=LINE('',#155,#154);
#157=DIRECTION('',(0.E0,0.E0,1.E0));
#158=VECTOR('',#157,7.5E-2);
#159=CARTESIAN_POINT('',(-4.15E0,-2.28E1,3.225E0));
#160=LINE('',#159,#158);
#161=DIRECTION('',(0.E0,4.736951571734E-14,-1.E0));
#162=VECTOR('',#161,7.5E-2);
#163=CARTESIAN_POINT('',(4.15E0,-2.28E1,3.3E0));
#164=LINE('',#163,#162);
#165=DIRECTION('',(1.E0,0.E0,0.E0));
#166=VECTOR('',#165,8.3E0);
#167=CARTESIAN_POINT('',(-4.15E0,-2.28E1,3.3E0));
#168=LINE('',#167,#166);
#169=DIRECTION('',(0.E0,1.E0,0.E0));
#170=VECTOR('',#169,4.56E1);
#171=CARTESIAN_POINT('',(-4.15E0,-2.28E1,3.225E0));
#172=LINE('',#171,#170);
#173=DIRECTION('',(1.E0,0.E0,0.E0));
#174=VECTOR('',#173,8.3E0);
#175=CARTESIAN_POINT('',(-4.15E0,2.28E1,3.225E0));
#176=LINE('',#175,#174);
#177=DIRECTION('',(0.E0,-1.E0,0.E0));
#178=VECTOR('',#177,4.56E1);
#179=CARTESIAN_POINT('',(4.15E0,2.28E1,3.225E0));
#180=LINE('',#179,#178);
#181=DIRECTION('',(-1.E0,0.E0,0.E0));
#182=VECTOR('',#181,8.3E0);
#183=CARTESIAN_POINT('',(4.15E0,-2.28E1,3.225E0));
#184=LINE('',#183,#182);
#185=DIRECTION('',(0.E0,0.E0,1.E0));
#186=VECTOR('',#185,1.E0);
#187=CARTESIAN_POINT('',(-4.E0,-2.5E1,-1.E0));
#188=LINE('',#187,#186);
#189=DIRECTION('',(0.E0,0.E0,-1.E0));
#190=VECTOR('',#189,1.E0);
#191=CARTESIAN_POINT('',(-4.E0,2.5E1,0.E0));
#192=LINE('',#191,#190);
#193=DIRECTION('',(0.E0,1.E0,0.E0));
#194=VECTOR('',#193,5.E1);
#195=CARTESIAN_POINT('',(-4.E0,-2.5E1,0.E0));
#196=LINE('',#195,#194);
#197=DIRECTION('',(0.E0,1.E0,0.E0));
#198=VECTOR('',#197,5.E1);
#199=CARTESIAN_POINT('',(4.E0,-2.5E1,-1.E0));
#200=LINE('',#199,#198);
#201=DIRECTION('',(-1.E0,0.E0,0.E0));
#202=VECTOR('',#201,8.E0);
#203=CARTESIAN_POINT('',(4.E0,2.5E1,-1.E0));
#204=LINE('',#203,#202);
#205=DIRECTION('',(0.E0,-1.E0,0.E0));
#206=VECTOR('',#205,5.E1);
#207=CARTESIAN_POINT('',(-4.E0,2.5E1,-1.E0));
#208=LINE('',#207,#206);
#209=DIRECTION('',(1.E0,0.E0,0.E0));
#210=VECTOR('',#209,8.E0);
#211=CARTESIAN_POINT('',(-4.E0,-2.5E1,-1.E0));
#212=LINE('',#211,#210);
#213=DIRECTION('',(0.E0,0.E0,1.E0));
#214=VECTOR('',#213,1.E0);
#215=CARTESIAN_POINT('',(4.E0,2.5E1,-1.E0));
#216=LINE('',#215,#214);
#217=DIRECTION('',(0.E0,0.E0,-1.E0));
#218=VECTOR('',#217,1.E0);
#219=CARTESIAN_POINT('',(4.E0,-2.5E1,0.E0));
#220=LINE('',#219,#218);
#221=DIRECTION('',(0.E0,-1.E0,0.E0));
#222=VECTOR('',#221,5.E1);
#223=CARTESIAN_POINT('',(4.E0,2.5E1,0.E0));
#224=LINE('',#223,#222);
#225=CARTESIAN_POINT('',(4.E0,-2.5E1,0.E0));
#226=CARTESIAN_POINT('',(5.E0,-2.5E1,0.E0));
#227=VERTEX_POINT('',#225);
#228=VERTEX_POINT('',#226);
#229=CARTESIAN_POINT('',(4.E0,2.5E1,0.E0));
#230=VERTEX_POINT('',#229);
#231=CARTESIAN_POINT('',(5.E0,2.5E1,0.E0));
#232=VERTEX_POINT('',#231);
#233=CARTESIAN_POINT('',(-4.E0,2.5E1,0.E0));
#234=CARTESIAN_POINT('',(-5.E0,2.5E1,0.E0));
#235=VERTEX_POINT('',#233);
#236=VERTEX_POINT('',#234);
#237=CARTESIAN_POINT('',(-4.E0,-2.5E1,0.E0));
#238=VERTEX_POINT('',#237);
#239=CARTESIAN_POINT('',(-5.E0,-2.5E1,0.E0));
#240=VERTEX_POINT('',#239);
#241=CARTESIAN_POINT('',(-5.E0,2.5E1,3.3E0));
#242=VERTEX_POINT('',#241);
#243=CARTESIAN_POINT('',(-5.E0,-2.5E1,3.3E0));
#244=VERTEX_POINT('',#243);
#245=CARTESIAN_POINT('',(-4.E0,-2.5E1,-1.E0));
#246=VERTEX_POINT('',#245);
#247=CARTESIAN_POINT('',(4.E0,-2.5E1,-1.E0));
#248=VERTEX_POINT('',#247);
#249=CARTESIAN_POINT('',(5.E0,-2.5E1,3.3E0));
#250=VERTEX_POINT('',#249);
#251=CARTESIAN_POINT('',(5.E0,2.5E1,3.3E0));
#252=VERTEX_POINT('',#251);
#253=CARTESIAN_POINT('',(4.E0,2.5E1,-1.E0));
#254=VERTEX_POINT('',#253);
#255=CARTESIAN_POINT('',(-4.E0,2.5E1,-1.E0));
#256=VERTEX_POINT('',#255);
#257=CARTESIAN_POINT('',(-4.15E0,2.28E1,3.3E0));
#258=CARTESIAN_POINT('',(-4.15E0,-2.28E1,3.3E0));
#259=VERTEX_POINT('',#257);
#260=VERTEX_POINT('',#258);
#261=CARTESIAN_POINT('',(4.15E0,-2.28E1,3.3E0));
#262=VERTEX_POINT('',#261);
#263=CARTESIAN_POINT('',(4.15E0,2.28E1,3.3E0));
#264=VERTEX_POINT('',#263);
#265=CARTESIAN_POINT('',(-4.15E0,2.28E1,3.225E0));
#266=VERTEX_POINT('',#265);
#267=CARTESIAN_POINT('',(-4.15E0,-2.28E1,3.225E0));
#268=VERTEX_POINT('',#267);
#269=CARTESIAN_POINT('',(4.15E0,2.28E1,3.225E0));
#270=VERTEX_POINT('',#269);
#271=CARTESIAN_POINT('',(4.15E0,-2.28E1,3.225E0));
#272=VERTEX_POINT('',#271);
#273=CARTESIAN_POINT('',(4.5E0,0.E0,0.E0));
#274=DIRECTION('',(0.E0,0.E0,1.E0));
#275=DIRECTION('',(1.E0,0.E0,0.E0));
#276=AXIS2_PLACEMENT_3D('',#273,#274,#275);
#277=PLANE('',#276);
#279=ORIENTED_EDGE('',*,*,#278,.T.);
#281=ORIENTED_EDGE('',*,*,#280,.T.);
#283=ORIENTED_EDGE('',*,*,#282,.T.);
#285=ORIENTED_EDGE('',*,*,#284,.T.);
#286=EDGE_LOOP('',(#279,#281,#283,#285));
#287=FACE_OUTER_BOUND('',#286,.F.);
#288=ADVANCED_FACE('',(#287),#277,.F.);
#289=FILL_AREA_STYLE_COLOUR('',#31);
#290=FILL_AREA_STYLE('',(#289));
#291=SURFACE_STYLE_FILL_AREA(#290);
#292=SURFACE_SIDE_STYLE('',(#291));
#293=SURFACE_STYLE_USAGE(.POSITIVE.,#292);
#294=FILL_AREA_STYLE_COLOUR('',#75);
#295=FILL_AREA_STYLE('',(#294));
#296=SURFACE_STYLE_FILL_AREA(#295);
#297=SURFACE_SIDE_STYLE('',(#296));
#298=SURFACE_STYLE_USAGE(.NEGATIVE.,#297);
#299=PRESENTATION_STYLE_ASSIGNMENT((#293,#298));
#300=STYLED_ITEM('',(#299),#288);
#301=CARTESIAN_POINT('',(0.E0,-2.5E1,1.15E0));
#302=DIRECTION('',(0.E0,1.E0,0.E0));
#303=DIRECTION('',(0.E0,0.E0,1.E0));
#304=AXIS2_PLACEMENT_3D('',#301,#302,#303);
#305=PLANE('',#304);
#307=ORIENTED_EDGE('',*,*,#306,.F.);
#309=ORIENTED_EDGE('',*,*,#308,.F.);
#311=ORIENTED_EDGE('',*,*,#310,.T.);
#312=ORIENTED_EDGE('',*,*,#278,.F.);
#314=ORIENTED_EDGE('',*,*,#313,.T.);
#316=ORIENTED_EDGE('',*,*,#315,.F.);
#318=ORIENTED_EDGE('',*,*,#317,.T.);
#320=ORIENTED_EDGE('',*,*,#319,.F.);
#321=EDGE_LOOP('',(#307,#309,#311,#312,#314,#316,#318,#320));
#322=FACE_OUTER_BOUND('',#321,.F.);
#323=ADVANCED_FACE('',(#322),#305,.F.);
#324=FILL_AREA_STYLE_COLOUR('',#28);
#325=FILL_AREA_STYLE('',(#324));
#326=SURFACE_STYLE_FILL_AREA(#325);
#327=SURFACE_SIDE_STYLE('',(#326));
#328=SURFACE_STYLE_USAGE(.POSITIVE.,#327);
#329=FILL_AREA_STYLE_COLOUR('',#75);
#330=FILL_AREA_STYLE('',(#329));
#331=SURFACE_STYLE_FILL_AREA(#330);
#332=SURFACE_SIDE_STYLE('',(#331));
#333=SURFACE_STYLE_USAGE(.NEGATIVE.,#332);
#334=PRESENTATION_STYLE_ASSIGNMENT((#328,#333));
#335=STYLED_ITEM('',(#334),#323);
#336=CARTESIAN_POINT('',(-5.E0,0.E0,1.65E0));
#337=DIRECTION('',(1.E0,0.E0,0.E0));
#338=DIRECTION('',(0.E0,1.E0,0.E0));
#339=AXIS2_PLACEMENT_3D('',#336,#337,#338);
#340=PLANE('',#339);
#342=ORIENTED_EDGE('',*,*,#341,.T.);
#344=ORIENTED_EDGE('',*,*,#343,.F.);
#345=ORIENTED_EDGE('',*,*,#306,.T.);
#347=ORIENTED_EDGE('',*,*,#346,.F.);
#348=EDGE_LOOP('',(#342,#344,#345,#347));
#349=FACE_OUTER_BOUND('',#348,.F.);
#350=ADVANCED_FACE('',(#349),#340,.F.);
#351=FILL_AREA_STYLE_COLOUR('',#30);
#352=FILL_AREA_STYLE('',(#351));
#353=SURFACE_STYLE_FILL_AREA(#352);
#354=SURFACE_SIDE_STYLE('',(#353));
#355=SURFACE_STYLE_USAGE(.POSITIVE.,#354);
#356=FILL_AREA_STYLE_COLOUR('',#75);
#357=FILL_AREA_STYLE('',(#356));
#358=SURFACE_STYLE_FILL_AREA(#357);
#359=SURFACE_SIDE_STYLE('',(#358));
#360=SURFACE_STYLE_USAGE(.NEGATIVE.,#359);
#361=PRESENTATION_STYLE_ASSIGNMENT((#355,#360));
#362=STYLED_ITEM('',(#361),#350);
#363=CARTESIAN_POINT('',(0.E0,2.5E1,1.15E0));
#364=DIRECTION('',(0.E0,1.E0,0.E0));
#365=DIRECTION('',(0.E0,0.E0,-1.E0));
#366=AXIS2_PLACEMENT_3D('',#363,#364,#365);
#367=PLANE('',#366);
#369=ORIENTED_EDGE('',*,*,#368,.F.);
#371=ORIENTED_EDGE('',*,*,#370,.F.);
#372=ORIENTED_EDGE('',*,*,#341,.F.);
#374=ORIENTED_EDGE('',*,*,#373,.F.);
#376=ORIENTED_EDGE('',*,*,#375,.T.);
#378=ORIENTED_EDGE('',*,*,#377,.F.);
#380=ORIENTED_EDGE('',*,*,#379,.T.);
#381=ORIENTED_EDGE('',*,*,#282,.F.);
#382=EDGE_LOOP('',(#369,#371,#372,#374,#376,#378,#380,#381));
#383=FACE_OUTER_BOUND('',#382,.F.);
#384=ADVANCED_FACE('',(#383),#367,.T.);
#385=FILL_AREA_STYLE_COLOUR('',#32);
#386=FILL_AREA_STYLE('',(#385));
#387=SURFACE_STYLE_FILL_AREA(#386);
#388=SURFACE_SIDE_STYLE('',(#387));
#389=SURFACE_STYLE_USAGE(.POSITIVE.,#388);
#390=FILL_AREA_STYLE_COLOUR('',#75);
#391=FILL_AREA_STYLE('',(#390));
#392=SURFACE_STYLE_FILL_AREA(#391);
#393=SURFACE_SIDE_STYLE('',(#392));
#394=SURFACE_STYLE_USAGE(.NEGATIVE.,#393);
#395=PRESENTATION_STYLE_ASSIGNMENT((#389,#394));
#396=STYLED_ITEM('',(#395),#384);
#397=CARTESIAN_POINT('',(5.E0,0.E0,1.65E0));
#398=DIRECTION('',(1.E0,0.E0,0.E0));
#399=DIRECTION('',(0.E0,-1.E0,0.E0));
#400=AXIS2_PLACEMENT_3D('',#397,#398,#399);
#401=PLANE('',#400);
#402=ORIENTED_EDGE('',*,*,#310,.F.);
#404=ORIENTED_EDGE('',*,*,#403,.F.);
#405=ORIENTED_EDGE('',*,*,#368,.T.);
#406=ORIENTED_EDGE('',*,*,#280,.F.);
#407=EDGE_LOOP('',(#402,#404,#405,#406));
#408=FACE_OUTER_BOUND('',#407,.F.);
#409=ADVANCED_FACE('',(#408),#401,.T.);
#410=FILL_AREA_STYLE_COLOUR('',#32);
#411=FILL_AREA_STYLE('',(#410));
#412=SURFACE_STYLE_FILL_AREA(#411);
#413=SURFACE_SIDE_STYLE('',(#412));
#414=SURFACE_STYLE_USAGE(.POSITIVE.,#413);
#415=FILL_AREA_STYLE_COLOUR('',#75);
#416=FILL_AREA_STYLE('',(#415));
#417=SURFACE_STYLE_FILL_AREA(#416);
#418=SURFACE_SIDE_STYLE('',(#417));
#419=SURFACE_STYLE_USAGE(.NEGATIVE.,#418);
#420=PRESENTATION_STYLE_ASSIGNMENT((#414,#419));
#421=STYLED_ITEM('',(#420),#409);
#422=CARTESIAN_POINT('',(0.E0,0.E0,3.3E0));
#423=DIRECTION('',(0.E0,0.E0,1.E0));
#424=DIRECTION('',(1.E0,0.E0,0.E0));
#425=AXIS2_PLACEMENT_3D('',#422,#423,#424);
#426=PLANE('',#425);
#427=ORIENTED_EDGE('',*,*,#343,.T.);
#428=ORIENTED_EDGE('',*,*,#370,.T.);
#429=ORIENTED_EDGE('',*,*,#403,.T.);
#430=ORIENTED_EDGE('',*,*,#308,.T.);
#431=EDGE_LOOP('',(#427,#428,#429,#430));
#432=FACE_OUTER_BOUND('',#431,.F.);
#434=ORIENTED_EDGE('',*,*,#433,.T.);
#436=ORIENTED_EDGE('',*,*,#435,.T.);
#438=ORIENTED_EDGE('',*,*,#437,.T.);
#440=ORIENTED_EDGE('',*,*,#439,.T.);
#441=EDGE_LOOP('',(#434,#436,#438,#440));
#442=FACE_BOUND('',#441,.F.);
#443=ADVANCED_FACE('',(#432,#442),#426,.T.);
#444=FILL_AREA_STYLE_COLOUR('',#32);
#445=FILL_AREA_STYLE('',(#444));
#446=SURFACE_STYLE_FILL_AREA(#445);
#447=SURFACE_SIDE_STYLE('',(#446));
#448=SURFACE_STYLE_USAGE(.POSITIVE.,#447);
#449=FILL_AREA_STYLE_COLOUR('',#75);
#450=FILL_AREA_STYLE('',(#449));
#451=SURFACE_STYLE_FILL_AREA(#450);
#452=SURFACE_SIDE_STYLE('',(#451));
#453=SURFACE_STYLE_USAGE(.NEGATIVE.,#452);
#454=PRESENTATION_STYLE_ASSIGNMENT((#448,#453));
#455=STYLED_ITEM('',(#454),#443);
#456=CARTESIAN_POINT('',(-4.15E0,0.E0,3.2625E0));
#457=DIRECTION('',(1.E0,0.E0,0.E0));
#458=DIRECTION('',(0.E0,-1.E0,0.E0));
#459=AXIS2_PLACEMENT_3D('',#456,#457,#458);
#460=PLANE('',#459);
#462=ORIENTED_EDGE('',*,*,#461,.T.);
#464=ORIENTED_EDGE('',*,*,#463,.F.);
#466=ORIENTED_EDGE('',*,*,#465,.T.);
#467=ORIENTED_EDGE('',*,*,#433,.F.);
#468=EDGE_LOOP('',(#462,#464,#466,#467));
#469=FACE_OUTER_BOUND('',#468,.F.);
#470=ADVANCED_FACE('',(#469),#460,.T.);
#471=FILL_AREA_STYLE_COLOUR('',#27);
#472=FILL_AREA_STYLE('',(#471));
#473=SURFACE_STYLE_FILL_AREA(#472);
#474=SURFACE_SIDE_STYLE('',(#473));
#475=SURFACE_STYLE_USAGE(.POSITIVE.,#474);
#476=FILL_AREA_STYLE_COLOUR('',#75);
#477=FILL_AREA_STYLE('',(#476));
#478=SURFACE_STYLE_FILL_AREA(#477);
#479=SURFACE_SIDE_STYLE('',(#478));
#480=SURFACE_STYLE_USAGE(.NEGATIVE.,#479);
#481=PRESENTATION_STYLE_ASSIGNMENT((#475,#480));
#482=STYLED_ITEM('',(#481),#470);
#483=CARTESIAN_POINT('',(0.E0,2.28E1,3.2625E0));
#484=DIRECTION('',(0.E0,1.E0,0.E0));
#485=DIRECTION('',(0.E0,0.E0,1.E0));
#486=AXIS2_PLACEMENT_3D('',#483,#484,#485);
#487=PLANE('',#486);
#489=ORIENTED_EDGE('',*,*,#488,.T.);
#491=ORIENTED_EDGE('',*,*,#490,.F.);
#492=ORIENTED_EDGE('',*,*,#461,.F.);
#493=ORIENTED_EDGE('',*,*,#439,.F.);
#494=EDGE_LOOP('',(#489,#491,#492,#493));
#495=FACE_OUTER_BOUND('',#494,.F.);
#496=ADVANCED_FACE('',(#495),#487,.F.);
#497=FILL_AREA_STYLE_COLOUR('',#27);
#498=FILL_AREA_STYLE('',(#497));
#499=SURFACE_STYLE_FILL_AREA(#498);
#500=SURFACE_SIDE_STYLE('',(#499));
#501=SURFACE_STYLE_USAGE(.POSITIVE.,#500);
#502=FILL_AREA_STYLE_COLOUR('',#75);
#503=FILL_AREA_STYLE('',(#502));
#504=SURFACE_STYLE_FILL_AREA(#503);
#505=SURFACE_SIDE_STYLE('',(#504));
#506=SURFACE_STYLE_USAGE(.NEGATIVE.,#505);
#507=PRESENTATION_STYLE_ASSIGNMENT((#501,#506));
#508=STYLED_ITEM('',(#507),#496);
#509=CARTESIAN_POINT('',(4.15E0,0.E0,3.2625E0));
#510=DIRECTION('',(1.E0,0.E0,0.E0));
#511=DIRECTION('',(0.E0,1.E0,0.E0));
#512=AXIS2_PLACEMENT_3D('',#509,#510,#511);
#513=PLANE('',#512);
#515=ORIENTED_EDGE('',*,*,#514,.T.);
#517=ORIENTED_EDGE('',*,*,#516,.F.);
#518=ORIENTED_EDGE('',*,*,#488,.F.);
#519=ORIENTED_EDGE('',*,*,#437,.F.);
#520=EDGE_LOOP('',(#515,#517,#518,#519));
#521=FACE_OUTER_BOUND('',#520,.F.);
#522=ADVANCED_FACE('',(#521),#513,.F.);
#523=FILL_AREA_STYLE_COLOUR('',#26);
#524=FILL_AREA_STYLE('',(#523));
#525=SURFACE_STYLE_FILL_AREA(#524);
#526=SURFACE_SIDE_STYLE('',(#525));
#527=SURFACE_STYLE_USAGE(.POSITIVE.,#526);
#528=FILL_AREA_STYLE_COLOUR('',#75);
#529=FILL_AREA_STYLE('',(#528));
#530=SURFACE_STYLE_FILL_AREA(#529);
#531=SURFACE_SIDE_STYLE('',(#530));
#532=SURFACE_STYLE_USAGE(.NEGATIVE.,#531);
#533=PRESENTATION_STYLE_ASSIGNMENT((#527,#532));
#534=STYLED_ITEM('',(#533),#522);
#535=CARTESIAN_POINT('',(0.E0,-2.28E1,3.2625E0));
#536=DIRECTION('',(0.E0,1.E0,0.E0));
#537=DIRECTION('',(0.E0,0.E0,-1.E0));
#538=AXIS2_PLACEMENT_3D('',#535,#536,#537);
#539=PLANE('',#538);
#540=ORIENTED_EDGE('',*,*,#465,.F.);
#542=ORIENTED_EDGE('',*,*,#541,.F.);
#543=ORIENTED_EDGE('',*,*,#514,.F.);
#544=ORIENTED_EDGE('',*,*,#435,.F.);
#545=EDGE_LOOP('',(#540,#542,#543,#544));
#546=FACE_OUTER_BOUND('',#545,.F.);
#547=ADVANCED_FACE('',(#546),#539,.T.);
#548=FILL_AREA_STYLE_COLOUR('',#26);
#549=FILL_AREA_STYLE('',(#548));
#550=SURFACE_STYLE_FILL_AREA(#549);
#551=SURFACE_SIDE_STYLE('',(#550));
#552=SURFACE_STYLE_USAGE(.POSITIVE.,#551);
#553=FILL_AREA_STYLE_COLOUR('',#75);
#554=FILL_AREA_STYLE('',(#553));
#555=SURFACE_STYLE_FILL_AREA(#554);
#556=SURFACE_SIDE_STYLE('',(#555));
#557=SURFACE_STYLE_USAGE(.NEGATIVE.,#556);
#558=PRESENTATION_STYLE_ASSIGNMENT((#552,#557));
#559=STYLED_ITEM('',(#558),#547);
#560=CARTESIAN_POINT('',(0.E0,0.E0,3.225E0));
#561=DIRECTION('',(0.E0,0.E0,1.E0));
#562=DIRECTION('',(1.E0,0.E0,0.E0));
#563=AXIS2_PLACEMENT_3D('',#560,#561,#562);
#564=PLANE('',#563);
#565=ORIENTED_EDGE('',*,*,#463,.T.);
#566=ORIENTED_EDGE('',*,*,#490,.T.);
#567=ORIENTED_EDGE('',*,*,#516,.T.);
#568=ORIENTED_EDGE('',*,*,#541,.T.);
#569=EDGE_LOOP('',(#565,#566,#567,#568));
#570=FACE_OUTER_BOUND('',#569,.F.);
#571=ADVANCED_FACE('',(#570),#564,.T.);
#572=FILL_AREA_STYLE_COLOUR('',#32);
#573=FILL_AREA_STYLE('',(#572));
#574=SURFACE_STYLE_FILL_AREA(#573);
#575=SURFACE_SIDE_STYLE('',(#574));
#576=SURFACE_STYLE_USAGE(.POSITIVE.,#575);
#577=FILL_AREA_STYLE_COLOUR('',#75);
#578=FILL_AREA_STYLE('',(#577));
#579=SURFACE_STYLE_FILL_AREA(#578);
#580=SURFACE_SIDE_STYLE('',(#579));
#581=SURFACE_STYLE_USAGE(.NEGATIVE.,#580);
#582=PRESENTATION_STYLE_ASSIGNMENT((#576,#581));
#583=STYLED_ITEM('',(#582),#571);
#584=CARTESIAN_POINT('',(-4.5E0,0.E0,0.E0));
#585=DIRECTION('',(0.E0,0.E0,1.E0));
#586=DIRECTION('',(1.E0,0.E0,0.E0));
#587=AXIS2_PLACEMENT_3D('',#584,#585,#586);
#588=PLANE('',#587);
#589=ORIENTED_EDGE('',*,*,#373,.T.);
#590=ORIENTED_EDGE('',*,*,#346,.T.);
#591=ORIENTED_EDGE('',*,*,#319,.T.);
#593=ORIENTED_EDGE('',*,*,#592,.T.);
#594=EDGE_LOOP('',(#589,#590,#591,#593));
#595=FACE_OUTER_BOUND('',#594,.F.);
#596=ADVANCED_FACE('',(#595),#588,.F.);
#597=FILL_AREA_STYLE_COLOUR('',#31);
#598=FILL_AREA_STYLE('',(#597));
#599=SURFACE_STYLE_FILL_AREA(#598);
#600=SURFACE_SIDE_STYLE('',(#599));
#601=SURFACE_STYLE_USAGE(.POSITIVE.,#600);
#602=FILL_AREA_STYLE_COLOUR('',#75);
#603=FILL_AREA_STYLE('',(#602));
#604=SURFACE_STYLE_FILL_AREA(#603);
#605=SURFACE_SIDE_STYLE('',(#604));
#606=SURFACE_STYLE_USAGE(.NEGATIVE.,#605);
#607=PRESENTATION_STYLE_ASSIGNMENT((#601,#606));
#608=STYLED_ITEM('',(#607),#596);
#609=CARTESIAN_POINT('',(-4.E0,0.E0,-5.E-1));
#610=DIRECTION('',(1.E0,0.E0,0.E0));
#611=DIRECTION('',(0.E0,1.E0,0.E0));
#612=AXIS2_PLACEMENT_3D('',#609,#610,#611);
#613=PLANE('',#612);
#614=ORIENTED_EDGE('',*,*,#317,.F.);
#616=ORIENTED_EDGE('',*,*,#615,.F.);
#617=ORIENTED_EDGE('',*,*,#375,.F.);
#618=ORIENTED_EDGE('',*,*,#592,.F.);
#619=EDGE_LOOP('',(#614,#616,#617,#618));
#620=FACE_OUTER_BOUND('',#619,.F.);
#621=ADVANCED_FACE('',(#620),#613,.F.);
#622=FILL_AREA_STYLE_COLOUR('',#30);
#623=FILL_AREA_STYLE('',(#622));
#624=SURFACE_STYLE_FILL_AREA(#623);
#625=SURFACE_SIDE_STYLE('',(#624));
#626=SURFACE_STYLE_USAGE(.POSITIVE.,#625);
#627=FILL_AREA_STYLE_COLOUR('',#75);
#628=FILL_AREA_STYLE('',(#627));
#629=SURFACE_STYLE_FILL_AREA(#628);
#630=SURFACE_SIDE_STYLE('',(#629));
#631=SURFACE_STYLE_USAGE(.NEGATIVE.,#630);
#632=PRESENTATION_STYLE_ASSIGNMENT((#626,#631));
#633=STYLED_ITEM('',(#632),#621);
#634=CARTESIAN_POINT('',(0.E0,0.E0,-1.E0));
#635=DIRECTION('',(0.E0,0.E0,1.E0));
#636=DIRECTION('',(-1.E0,0.E0,0.E0));
#637=AXIS2_PLACEMENT_3D('',#634,#635,#636);
#638=PLANE('',#637);
#640=ORIENTED_EDGE('',*,*,#639,.T.);
#641=ORIENTED_EDGE('',*,*,#377,.T.);
#642=ORIENTED_EDGE('',*,*,#615,.T.);
#643=ORIENTED_EDGE('',*,*,#315,.T.);
#644=EDGE_LOOP('',(#640,#641,#642,#643));
#645=FACE_OUTER_BOUND('',#644,.F.);
#646=ADVANCED_FACE('',(#645),#638,.F.);
#647=FILL_AREA_STYLE_COLOUR('',#31);
#648=FILL_AREA_STYLE('',(#647));
#649=SURFACE_STYLE_FILL_AREA(#648);
#650=SURFACE_SIDE_STYLE('',(#649));
#651=SURFACE_STYLE_USAGE(.POSITIVE.,#650);
#652=FILL_AREA_STYLE_COLOUR('',#75);
#653=FILL_AREA_STYLE('',(#652));
#654=SURFACE_STYLE_FILL_AREA(#653);
#655=SURFACE_SIDE_STYLE('',(#654));
#656=SURFACE_STYLE_USAGE(.NEGATIVE.,#655);
#657=PRESENTATION_STYLE_ASSIGNMENT((#651,#656));
#658=STYLED_ITEM('',(#657),#646);
#659=CARTESIAN_POINT('',(4.E0,0.E0,-5.E-1));
#660=DIRECTION('',(1.E0,0.E0,0.E0));
#661=DIRECTION('',(0.E0,-1.E0,0.E0));
#662=AXIS2_PLACEMENT_3D('',#659,#660,#661);
#663=PLANE('',#662);
#664=ORIENTED_EDGE('',*,*,#379,.F.);
#665=ORIENTED_EDGE('',*,*,#639,.F.);
#666=ORIENTED_EDGE('',*,*,#313,.F.);
#667=ORIENTED_EDGE('',*,*,#284,.F.);
#668=EDGE_LOOP('',(#664,#665,#666,#667));
#669=FACE_OUTER_BOUND('',#668,.F.);
#670=ADVANCED_FACE('',(#669),#663,.T.);
#671=FILL_AREA_STYLE_COLOUR('',#29);
#672=FILL_AREA_STYLE('',(#671));
#673=SURFACE_STYLE_FILL_AREA(#672);
#674=SURFACE_SIDE_STYLE('',(#673));
#675=SURFACE_STYLE_USAGE(.POSITIVE.,#674);
#676=FILL_AREA_STYLE_COLOUR('',#75);
#677=FILL_AREA_STYLE('',(#676));
#678=SURFACE_STYLE_FILL_AREA(#677);
#679=SURFACE_SIDE_STYLE('',(#678));
#680=SURFACE_STYLE_USAGE(.NEGATIVE.,#679);
#681=PRESENTATION_STYLE_ASSIGNMENT((#675,#680));
#682=STYLED_ITEM('',(#681),#670);
#683=CLOSED_SHELL('',(#288,#323,#350,#384,#409,#443,#470,#496,#522,#547,#571,
#596,#621,#646,#670));
#684=MANIFOLD_SOLID_BREP('',#683);
#686=DIMENSIONAL_EXPONENTS(0.E0,0.E0,0.E0,0.E0,0.E0,0.E0,0.E0);
#688=PLANE_ANGLE_MEASURE_WITH_UNIT(PLANE_ANGLE_MEASURE(1.745329251994E-2),#687);
#689=(CONVERSION_BASED_UNIT('DEGREE',#688)NAMED_UNIT(*)PLANE_ANGLE_UNIT());
#691=UNCERTAINTY_MEASURE_WITH_UNIT(LENGTH_MEASURE(5.116913644952E-3),#685,
'closure',
'Maximum model space distance between geometric entities at asserted connectivities');
#692=(GEOMETRIC_REPRESENTATION_CONTEXT(3)GLOBAL_UNCERTAINTY_ASSIGNED_CONTEXT((
#691))GLOBAL_UNIT_ASSIGNED_CONTEXT((#685,#689,#690))REPRESENTATION_CONTEXT
('ID1','3'));
#694=MECHANICAL_DESIGN_GEOMETRIC_PRESENTATION_REPRESENTATION('',(#300,#335,#362,
#396,#421,#455,#482,#508,#534,#559,#583,#608,#633,#658,#682),#692);
#695=APPLICATION_CONTEXT(
'CONFIGURATION CONTROLLED 3D DESIGNS OF MECHANICAL PARTS AND ASSEMBLIES');
#696=APPLICATION_PROTOCOL_DEFINITION('international standard',
'config_control_design',1994,#695);
#697=DESIGN_CONTEXT('',#695,'design');
#698=MECHANICAL_CONTEXT('',#695,'mechanical');
#699=PRODUCT('DBCAD2611_REF-A35','DBCAD2611_REF-A35','NOT SPECIFIED',(#698));
#700=PRODUCT_DEFINITION_FORMATION_WITH_SPECIFIED_SOURCE('1','LAST_VERSION',#699,
.MADE.);
#704=PRODUCT_CATEGORY('part','');
#705=PRODUCT_RELATED_PRODUCT_CATEGORY('detail','',(#699));
#706=PRODUCT_CATEGORY_RELATIONSHIP('','',#704,#705);
#707=SECURITY_CLASSIFICATION_LEVEL('unclassified');
#708=SECURITY_CLASSIFICATION('','',#707);
#709=CC_DESIGN_SECURITY_CLASSIFICATION(#708,(#700));
#710=APPROVAL_STATUS('approved');
#711=APPROVAL(#710,'');
#712=CC_DESIGN_APPROVAL(#711,(#708,#700,#701));
#713=CALENDAR_DATE(117,8,6);
#714=COORDINATED_UNIVERSAL_TIME_OFFSET(2,0,.AHEAD.);
#715=LOCAL_TIME(13,39,5.6E1,#714);
#716=DATE_AND_TIME(#713,#715);
#717=APPROVAL_DATE_TIME(#716,#711);
#718=DATE_TIME_ROLE('creation_date');
#719=CC_DESIGN_DATE_AND_TIME_ASSIGNMENT(#716,#718,(#701));
#720=DATE_TIME_ROLE('classification_date');
#721=CC_DESIGN_DATE_AND_TIME_ASSIGNMENT(#716,#720,(#708));
#722=PERSON('UNSPECIFIED','UNSPECIFIED',$,$,$,$);
#723=ORGANIZATION('UNSPECIFIED','UNSPECIFIED','UNSPECIFIED');
#724=PERSON_AND_ORGANIZATION(#722,#723);
#725=APPROVAL_ROLE('approver');
#726=APPROVAL_PERSON_ORGANIZATION(#724,#711,#725);
#727=PERSON_AND_ORGANIZATION_ROLE('creator');
#728=CC_DESIGN_PERSON_AND_ORGANIZATION_ASSIGNMENT(#724,#727,(#700,#701));
#729=PERSON_AND_ORGANIZATION_ROLE('design_supplier');
#730=CC_DESIGN_PERSON_AND_ORGANIZATION_ASSIGNMENT(#724,#729,(#700));
#731=PERSON_AND_ORGANIZATION_ROLE('classification_officer');
#732=CC_DESIGN_PERSON_AND_ORGANIZATION_ASSIGNMENT(#724,#731,(#708));
#733=PERSON_AND_ORGANIZATION_ROLE('design_owner');
#734=CC_DESIGN_PERSON_AND_ORGANIZATION_ASSIGNMENT(#724,#733,(#699));
#1=COLOUR_RGB('',0.E0,0.E0,1.96E-1);
#2=COLOUR_RGB('',0.E0,0.E0,3.14E-1);
#3=COLOUR_RGB('',0.E0,1.96E-1,0.E0);
#4=COLOUR_RGB('',0.E0,3.14E-1,0.E0);
#5=DRAUGHTING_PRE_DEFINED_COLOUR('cyan');
#6=COLOUR_RGB('',7.8E-2,7.8E-2,7.8E-2);
#7=COLOUR_RGB('',1.18E-1,1.18E-1,4.71E-1);
#8=COLOUR_RGB('',1.57E-1,1.57E-1,1.57E-1);
#9=COLOUR_RGB('',1.96E-1,0.E0,0.E0);
#10=COLOUR_RGB('',1.96E-1,0.E0,1.96E-1);
#11=COLOUR_RGB('',1.96E-1,5.88E-1,1.96E-1);
#12=COLOUR_RGB('',2.35E-1,2.35E-1,2.35E-1);
#13=COLOUR_RGB('',2.35E-1,2.35E-1,5.88E-1);
#14=COLOUR_RGB('',3.14E-1,3.14E-1,3.14E-1);
#15=COLOUR_RGB('',3.27543E-1,1.E0,6.33116E-1);
#16=COLOUR_RGB('',3.27543E-1,1.E0,6.33116E-1);
#17=COLOUR_RGB('',3.27543E-1,1.E0,6.33116E-1);
#18=COLOUR_RGB('',3.27543E-1,1.E0,6.33116E-1);
#19=COLOUR_RGB('',3.27543E-1,1.E0,6.33116E-1);
#20=COLOUR_RGB('',3.27543E-1,1.E0,6.33116E-1);
#21=COLOUR_RGB('',3.27543E-1,1.E0,6.33116E-1);
#22=COLOUR_RGB('',3.27543E-1,1.E0,6.33116E-1);
#23=COLOUR_RGB('',3.27543E-1,1.E0,6.33116E-1);
#24=COLOUR_RGB('',3.27543E-1,1.E0,6.33116E-1);
#25=COLOUR_RGB('',3.27543E-1,1.E0,6.33116E-1);
#26=COLOUR_RGB('',3.27543E-1,1.E0,6.33116E-1);
#27=COLOUR_RGB('',3.27543E-1,1.E0,6.33116E-1);
#28=COLOUR_RGB('',3.27543E-1,1.E0,6.33116E-1);
#29=COLOUR_RGB('',3.27543E-1,1.E0,6.33116E-1);
#30=COLOUR_RGB('',3.27543E-1,1.E0,6.33116E-1);
#31=COLOUR_RGB('',3.27543E-1,1.E0,6.33116E-1);
#32=COLOUR_RGB('',3.27543E-1,1.E0,6.33116E-1);
#33=COLOUR_RGB('',3.27543E-1,1.E0,6.33116E-1);
#34=COLOUR_RGB('',3.27543E-1,1.E0,6.33116E-1);
#35=COLOUR_RGB('',3.27543E-1,1.E0,6.33116E-1);
#36=COLOUR_RGB('',3.27543E-1,1.E0,6.33116E-1);
#37=COLOUR_RGB('',3.27543E-1,1.E0,6.33116E-1);
#38=COLOUR_RGB('',3.27543E-1,1.E0,6.33116E-1);
#39=COLOUR_RGB('',3.27543E-1,1.E0,6.33116E-1);
#40=COLOUR_RGB('',3.27543E-1,1.E0,6.33116E-1);
#41=COLOUR_RGB('',3.27543E-1,1.E0,6.33116E-1);
#42=COLOUR_RGB('',3.27543E-1,1.E0,6.33116E-1);
#43=COLOUR_RGB('',3.27543E-1,1.E0,6.33116E-1);
#44=COLOUR_RGB('',3.27543E-1,1.E0,6.33116E-1);
#45=COLOUR_RGB('',3.27543E-1,1.E0,6.33116E-1);
#46=COLOUR_RGB('',3.27543E-1,1.E0,6.33116E-1);
#47=COLOUR_RGB('',3.27543E-1,1.E0,6.33116E-1);
#48=COLOUR_RGB('',3.27543E-1,1.E0,6.33116E-1);
#49=COLOUR_RGB('',3.27543E-1,1.E0,6.33116E-1);
#50=COLOUR_RGB('',3.27543E-1,1.E0,6.33116E-1);
#51=COLOUR_RGB('',3.27543E-1,1.E0,6.33116E-1);
#52=COLOUR_RGB('',3.27543E-1,1.E0,6.33116E-1);
#53=COLOUR_RGB('',3.27543E-1,1.E0,6.33116E-1);
#54=COLOUR_RGB('',3.27543E-1,1.E0,6.33116E-1);
#55=COLOUR_RGB('',3.27543E-1,1.E0,6.33116E-1);
#56=COLOUR_RGB('',3.27543E-1,1.E0,6.33116E-1);
#57=COLOUR_RGB('',3.27543E-1,1.E0,6.33116E-1);
#58=COLOUR_RGB('',3.27543E-1,1.E0,6.33116E-1);
#59=COLOUR_RGB('',3.27543E-1,1.E0,6.33116E-1);
#60=COLOUR_RGB('',3.27543E-1,1.E0,6.33116E-1);
#61=COLOUR_RGB('',3.92E-1,0.E0,0.E0);
#62=COLOUR_RGB('',3.92E-1,0.E0,3.92E-1);
#63=COLOUR_RGB('',3.92E-1,3.92E-1,3.92E-1);
#64=COLOUR_RGB('',3.92E-1,3.92E-1,8.63E-1);
#65=COLOUR_RGB('',3.92E-1,5.88E-1,3.92E-1);
#66=COLOUR_RGB('',3.92E-1,5.88E-1,8.63E-1);
#67=COLOUR_RGB('',5.019607843137E-1,5.019607843137E-1,1.E0);
#68=COLOUR_RGB('',5.01961E-1,1.E0,5.01961E-1);
#69=COLOUR_RGB('',5.5E-1,5.6E-1,7.E-1);
#70=COLOUR_RGB('',5.88E-1,5.88E-1,5.88E-1);
#71=COLOUR_RGB('',5.88E-1,7.84E-1,5.88E-1);
#72=COLOUR_RGB('',6.2E-1,3.1E-1,6.5E-1);
#73=COLOUR_RGB('',6.8E-1,8.5E-1,1.E0);
#74=COLOUR_RGB('',6.952E-1,7.426E-1,7.9E-1);
#75=COLOUR_RGB('',7.960784313725E-1,8.235294117647E-1,9.372549019608E-1);
#76=COLOUR_RGB('',9.8E-1,3.92E-1,0.E0);
#77=COLOUR_RGB('',9.8E-1,5.88E-1,0.E0);
#78=COLOUR_RGB('',9.8E-1,7.84E-1,0.E0);
#79=COLOUR_RGB('',1.E0,3.7E-1,3.8E-1);
#80=DRAUGHTING_PRE_DEFINED_COLOUR('white');
#278=EDGE_CURVE('',#227,#228,#88,.T.);
#280=EDGE_CURVE('',#228,#232,#120,.T.);
#282=EDGE_CURVE('',#232,#230,#112,.T.);
#284=EDGE_CURVE('',#230,#227,#224,.T.);
#306=EDGE_CURVE('',#244,#240,#84,.T.);
#308=EDGE_CURVE('',#250,#244,#136,.T.);
#310=EDGE_CURVE('',#250,#228,#116,.T.);
#313=EDGE_CURVE('',#227,#248,#220,.T.);
#315=EDGE_CURVE('',#246,#248,#212,.T.);
#317=EDGE_CURVE('',#246,#238,#188,.T.);
#319=EDGE_CURVE('',#240,#238,#92,.T.);
#341=EDGE_CURVE('',#236,#242,#104,.T.);
#343=EDGE_CURVE('',#244,#242,#124,.T.);
#346=EDGE_CURVE('',#236,#240,#96,.T.);
#368=EDGE_CURVE('',#252,#232,#100,.T.);
#370=EDGE_CURVE('',#242,#252,#128,.T.);
#373=EDGE_CURVE('',#235,#236,#108,.T.);
#375=EDGE_CURVE('',#235,#256,#192,.T.);
#377=EDGE_CURVE('',#254,#256,#204,.T.);
#379=EDGE_CURVE('',#254,#230,#216,.T.);
#403=EDGE_CURVE('',#252,#250,#132,.T.);
#433=EDGE_CURVE('',#259,#260,#140,.T.);
#435=EDGE_CURVE('',#260,#262,#168,.T.);
#437=EDGE_CURVE('',#262,#264,#156,.T.);
#439=EDGE_CURVE('',#264,#259,#148,.T.);
#461=EDGE_CURVE('',#259,#266,#144,.T.);
#463=EDGE_CURVE('',#268,#266,#172,.T.);
#465=EDGE_CURVE('',#268,#260,#160,.T.);
#488=EDGE_CURVE('',#264,#270,#152,.T.);
#490=EDGE_CURVE('',#266,#270,#176,.T.);
#514=EDGE_CURVE('',#262,#272,#164,.T.);
#516=EDGE_CURVE('',#270,#272,#180,.T.);
#541=EDGE_CURVE('',#272,#268,#184,.T.);
#592=EDGE_CURVE('',#238,#235,#196,.T.);
#615=EDGE_CURVE('',#256,#246,#208,.T.);
#639=EDGE_CURVE('',#248,#254,#200,.T.);
#685=(LENGTH_UNIT()NAMED_UNIT(*)SI_UNIT(.MILLI.,.METRE.));
#687=(NAMED_UNIT(*)PLANE_ANGLE_UNIT()SI_UNIT($,.RADIAN.));
#690=(NAMED_UNIT(*)SI_UNIT($,.STERADIAN.)SOLID_ANGLE_UNIT());
#693=ADVANCED_BREP_SHAPE_REPRESENTATION('',(#684),#692);
#701=PRODUCT_DEFINITION('design','',#700,#697);
#702=PRODUCT_DEFINITION_SHAPE('','SHAPE FOR DBCAD2611_REF-A35.',#701);
#703=SHAPE_DEFINITION_REPRESENTATION(#702,#693);
ENDSEC;
END-ISO-10303-21;
