ISO-10303-21;
HEADER;
FILE_DESCRIPTION((''),'2;1');
FILE_NAME('E117-50_CB','2017-06-13T',('cmozuch'),(''),
'PRO/ENGINEER BY PARAMETRIC TECHNOLOGY CORPORATION, 2015440',
'PRO/ENGINEER BY PARAMETRIC TECHNOLOGY CORPORATION, 2015440','');
FILE_SCHEMA(('CONFIG_CONTROL_DESIGN'));
ENDSEC;
DATA;
#37=DIRECTION('',(-1.349334866063E-8,0.E0,1.E0));
#38=VECTOR('',#37,7.5E-2);
#39=CARTESIAN_POINT('',(6.499999998925E0,0.E0,5.925E0));
#40=LINE('',#39,#38);
#41=DIRECTION('',(-1.349334866063E-8,0.E0,-1.E0));
#42=VECTOR('',#41,7.5E-2);
#43=CARTESIAN_POINT('',(-6.499999997913E0,-1.777561122746E-9,6.E0));
#44=LINE('',#43,#42);
#45=CARTESIAN_POINT('',(0.E0,0.E0,6.E0));
#46=DIRECTION('',(0.E0,0.E0,1.E0));
#47=DIRECTION('',(-1.E0,0.E0,0.E0));
#48=AXIS2_PLACEMENT_3D('',#45,#46,#47);
#50=CARTESIAN_POINT('',(0.E0,0.E0,6.E0));
#51=DIRECTION('',(0.E0,0.E0,1.E0));
#52=DIRECTION('',(1.E0,0.E0,0.E0));
#53=AXIS2_PLACEMENT_3D('',#50,#51,#52);
#55=CARTESIAN_POINT('',(0.E0,0.E0,6.E0));
#56=DIRECTION('',(0.E0,0.E0,-1.E0));
#57=DIRECTION('',(-1.E0,0.E0,0.E0));
#58=AXIS2_PLACEMENT_3D('',#55,#56,#57);
#60=CARTESIAN_POINT('',(0.E0,0.E0,6.E0));
#61=DIRECTION('',(0.E0,0.E0,-1.E0));
#62=DIRECTION('',(1.E0,0.E0,0.E0));
#63=AXIS2_PLACEMENT_3D('',#60,#61,#62);
#65=DIRECTION('',(5.734663114746E-9,0.E0,-1.E0));
#66=VECTOR('',#65,3.E-1);
#67=CARTESIAN_POINT('',(7.499999998760E0,-2.051032064707E-9,6.E0));
#68=LINE('',#67,#66);
#69=DIRECTION('',(5.734666075341E-9,0.E0,1.E0));
#70=VECTOR('',#69,3.E-1);
#71=CARTESIAN_POINT('',(-7.500000000480E0,0.E0,5.7E0));
#72=LINE('',#71,#70);
#73=CARTESIAN_POINT('',(0.E0,0.E0,5.7E0));
#74=DIRECTION('',(0.E0,0.E0,1.E0));
#75=DIRECTION('',(-1.E0,0.E0,0.E0));
#76=AXIS2_PLACEMENT_3D('',#73,#74,#75);
#78=CARTESIAN_POINT('',(0.E0,0.E0,5.7E0));
#79=DIRECTION('',(0.E0,0.E0,1.E0));
#80=DIRECTION('',(1.E0,0.E0,0.E0));
#81=AXIS2_PLACEMENT_3D('',#78,#79,#80);
#83=CARTESIAN_POINT('',(0.E0,0.E0,5.7E0));
#84=DIRECTION('',(0.E0,0.E0,-1.E0));
#85=DIRECTION('',(1.E0,0.E0,0.E0));
#86=AXIS2_PLACEMENT_3D('',#83,#84,#85);
#88=CARTESIAN_POINT('',(0.E0,0.E0,5.7E0));
#89=DIRECTION('',(0.E0,0.E0,-1.E0));
#90=DIRECTION('',(-1.E0,0.E0,0.E0));
#91=AXIS2_PLACEMENT_3D('',#88,#89,#90);
#93=DIRECTION('',(-4.281539225723E-10,0.E0,-1.E0));
#94=VECTOR('',#93,2.6E0);
#95=CARTESIAN_POINT('',(8.649999998570E0,-2.365523647962E-9,5.7E0));
#96=LINE('',#95,#94);
#97=DIRECTION('',(-4.281532393581E-10,0.E0,1.E0));
#98=VECTOR('',#97,2.6E0);
#99=CARTESIAN_POINT('',(-8.649999997457E0,0.E0,3.1E0));
#100=LINE('',#99,#98);
#101=CARTESIAN_POINT('',(0.E0,0.E0,3.1E0));
#102=DIRECTION('',(0.E0,0.E0,1.E0));
#103=DIRECTION('',(-1.E0,0.E0,0.E0));
#104=AXIS2_PLACEMENT_3D('',#101,#102,#103);
#106=CARTESIAN_POINT('',(0.E0,0.E0,3.1E0));
#107=DIRECTION('',(0.E0,0.E0,1.E0));
#108=DIRECTION('',(1.E0,0.E0,0.E0));
#109=AXIS2_PLACEMENT_3D('',#106,#107,#108);
#111=CARTESIAN_POINT('',(0.E0,0.E0,3.1E0));
#112=DIRECTION('',(0.E0,0.E0,-1.E0));
#113=DIRECTION('',(1.E0,0.E0,0.E0));
#114=AXIS2_PLACEMENT_3D('',#111,#112,#113);
#116=CARTESIAN_POINT('',(0.E0,0.E0,3.1E0));
#117=DIRECTION('',(0.E0,0.E0,-1.E0));
#118=DIRECTION('',(-1.E0,0.E0,0.E0));
#119=AXIS2_PLACEMENT_3D('',#116,#117,#118);
#121=DIRECTION('',(0.E0,0.E0,-1.E0));
#122=VECTOR('',#121,2.3E0);
#123=CARTESIAN_POINT('',(1.024999999831E1,-2.803077155100E-9,3.1E0));
#124=LINE('',#123,#122);
#125=DIRECTION('',(0.E0,0.E0,1.E0));
#126=VECTOR('',#125,2.3E0);
#127=CARTESIAN_POINT('',(-1.024999999831E1,0.E0,8.E-1));
#128=LINE('',#127,#126);
#129=CARTESIAN_POINT('',(0.E0,0.E0,8.E-1));
#130=DIRECTION('',(0.E0,0.E0,1.E0));
#131=DIRECTION('',(1.E0,0.E0,0.E0));
#132=AXIS2_PLACEMENT_3D('',#129,#130,#131);
#134=CARTESIAN_POINT('',(0.E0,0.E0,8.E-1));
#135=DIRECTION('',(0.E0,0.E0,1.E0));
#136=DIRECTION('',(-1.E0,0.E0,0.E0));
#137=AXIS2_PLACEMENT_3D('',#134,#135,#136);
#139=CARTESIAN_POINT('',(0.E0,0.E0,8.E-1));
#140=DIRECTION('',(0.E0,0.E0,-1.E0));
#141=DIRECTION('',(-1.E0,0.E0,0.E0));
#142=AXIS2_PLACEMENT_3D('',#139,#140,#141);
#144=CARTESIAN_POINT('',(0.E0,0.E0,8.E-1));
#145=DIRECTION('',(0.E0,0.E0,-1.E0));
#146=DIRECTION('',(1.E0,0.E0,0.E0));
#147=AXIS2_PLACEMENT_3D('',#144,#145,#146);
#149=DIRECTION('',(1.686666362133E-9,0.E0,-1.E0));
#150=VECTOR('',#149,8.E-1);
#151=CARTESIAN_POINT('',(7.999999997328E0,-2.187767535688E-9,8.E-1));
#152=LINE('',#151,#150);
#153=DIRECTION('',(1.686665251910E-9,0.E0,1.E0));
#154=VECTOR('',#153,8.E-1);
#155=CARTESIAN_POINT('',(-7.999999998677E0,0.E0,0.E0));
#156=LINE('',#155,#154);
#157=CARTESIAN_POINT('',(0.E0,0.E0,0.E0));
#158=DIRECTION('',(0.E0,0.E0,1.E0));
#159=DIRECTION('',(1.E0,0.E0,0.E0));
#160=AXIS2_PLACEMENT_3D('',#157,#158,#159);
#162=CARTESIAN_POINT('',(0.E0,0.E0,0.E0));
#163=DIRECTION('',(0.E0,0.E0,1.E0));
#164=DIRECTION('',(-1.E0,0.E0,0.E0));
#165=AXIS2_PLACEMENT_3D('',#162,#163,#164);
#167=CARTESIAN_POINT('',(0.E0,0.E0,5.925E0));
#168=DIRECTION('',(0.E0,0.E0,1.E0));
#169=DIRECTION('',(1.E0,0.E0,0.E0));
#170=AXIS2_PLACEMENT_3D('',#167,#168,#169);
#172=CARTESIAN_POINT('',(0.E0,0.E0,5.925E0));
#173=DIRECTION('',(0.E0,0.E0,1.E0));
#174=DIRECTION('',(-1.E0,0.E0,0.E0));
#175=AXIS2_PLACEMENT_3D('',#172,#173,#174);
#177=CARTESIAN_POINT('',(6.499999998925E0,0.E0,5.925E0));
#178=CARTESIAN_POINT('',(6.499999997913E0,0.E0,6.E0));
#179=VERTEX_POINT('',#177);
#180=VERTEX_POINT('',#178);
#181=CARTESIAN_POINT('',(-6.5E0,0.E0,5.925E0));
#182=VERTEX_POINT('',#181);
#183=CARTESIAN_POINT('',(-6.499999997913E0,-1.777561122746E-9,6.E0));
#184=VERTEX_POINT('',#183);
#185=CARTESIAN_POINT('',(7.5E0,0.E0,6.E0));
#186=CARTESIAN_POINT('',(-7.5E0,0.E0,6.E0));
#187=VERTEX_POINT('',#185);
#188=VERTEX_POINT('',#186);
#189=CARTESIAN_POINT('',(-7.500000000480E0,0.E0,5.7E0));
#190=VERTEX_POINT('',#189);
#191=CARTESIAN_POINT('',(7.5E0,0.E0,5.7E0));
#192=VERTEX_POINT('',#191);
#193=CARTESIAN_POINT('',(8.65E0,0.E0,5.7E0));
#194=CARTESIAN_POINT('',(-8.65E0,0.E0,5.7E0));
#195=VERTEX_POINT('',#193);
#196=VERTEX_POINT('',#194);
#197=CARTESIAN_POINT('',(-8.649999997457E0,0.E0,3.1E0));
#198=VERTEX_POINT('',#197);
#199=CARTESIAN_POINT('',(8.65E0,0.E0,3.1E0));
#200=VERTEX_POINT('',#199);
#201=CARTESIAN_POINT('',(1.025E1,0.E0,3.1E0));
#202=CARTESIAN_POINT('',(-1.025E1,0.E0,3.1E0));
#203=VERTEX_POINT('',#201);
#204=VERTEX_POINT('',#202);
#205=CARTESIAN_POINT('',(-1.024999999831E1,0.E0,8.E-1));
#206=VERTEX_POINT('',#205);
#207=CARTESIAN_POINT('',(1.025E1,0.E0,8.E-1));
#208=VERTEX_POINT('',#207);
#209=CARTESIAN_POINT('',(-8.E0,0.E0,8.E-1));
#210=CARTESIAN_POINT('',(8.E0,0.E0,8.E-1));
#211=VERTEX_POINT('',#209);
#212=VERTEX_POINT('',#210);
#213=CARTESIAN_POINT('',(-7.999999998677E0,0.E0,0.E0));
#214=VERTEX_POINT('',#213);
#215=CARTESIAN_POINT('',(8.E0,0.E0,0.E0));
#216=VERTEX_POINT('',#215);
#217=CARTESIAN_POINT('',(0.E0,0.E0,5.925E0));
#218=DIRECTION('',(0.E0,0.E0,1.E0));
#219=DIRECTION('',(1.E0,0.E0,0.E0));
#220=AXIS2_PLACEMENT_3D('',#217,#218,#219);
#221=CYLINDRICAL_SURFACE('',#220,6.5E0);
#223=ORIENTED_EDGE('',*,*,#222,.T.);
#225=ORIENTED_EDGE('',*,*,#224,.T.);
#227=ORIENTED_EDGE('',*,*,#226,.T.);
#229=ORIENTED_EDGE('',*,*,#228,.T.);
#230=EDGE_LOOP('',(#223,#225,#227,#229));
#231=FACE_OUTER_BOUND('',#230,.F.);
#232=ADVANCED_FACE('',(#231),#221,.F.);
#233=FILL_AREA_STYLE_COLOUR('',#15);
#234=FILL_AREA_STYLE('',(#233));
#235=SURFACE_STYLE_FILL_AREA(#234);
#236=SURFACE_SIDE_STYLE('',(#235));
#237=SURFACE_STYLE_USAGE(.POSITIVE.,#236);
#238=FILL_AREA_STYLE_COLOUR('',#31);
#239=FILL_AREA_STYLE('',(#238));
#240=SURFACE_STYLE_FILL_AREA(#239);
#241=SURFACE_SIDE_STYLE('',(#240));
#242=SURFACE_STYLE_USAGE(.NEGATIVE.,#241);
#243=PRESENTATION_STYLE_ASSIGNMENT((#237,#242));
#244=STYLED_ITEM('',(#243),#232);
#245=CARTESIAN_POINT('',(0.E0,0.E0,5.925E0));
#246=DIRECTION('',(0.E0,0.E0,1.E0));
#247=DIRECTION('',(1.E0,0.E0,0.E0));
#248=AXIS2_PLACEMENT_3D('',#245,#246,#247);
#249=CYLINDRICAL_SURFACE('',#248,6.5E0);
#251=ORIENTED_EDGE('',*,*,#250,.T.);
#252=ORIENTED_EDGE('',*,*,#222,.F.);
#254=ORIENTED_EDGE('',*,*,#253,.T.);
#255=ORIENTED_EDGE('',*,*,#226,.F.);
#256=EDGE_LOOP('',(#251,#252,#254,#255));
#257=FACE_OUTER_BOUND('',#256,.F.);
#258=ADVANCED_FACE('',(#257),#249,.F.);
#259=FILL_AREA_STYLE_COLOUR('',#15);
#260=FILL_AREA_STYLE('',(#259));
#261=SURFACE_STYLE_FILL_AREA(#260);
#262=SURFACE_SIDE_STYLE('',(#261));
#263=SURFACE_STYLE_USAGE(.POSITIVE.,#262);
#264=FILL_AREA_STYLE_COLOUR('',#31);
#265=FILL_AREA_STYLE('',(#264));
#266=SURFACE_STYLE_FILL_AREA(#265);
#267=SURFACE_SIDE_STYLE('',(#266));
#268=SURFACE_STYLE_USAGE(.NEGATIVE.,#267);
#269=PRESENTATION_STYLE_ASSIGNMENT((#263,#268));
#270=STYLED_ITEM('',(#269),#258);
#271=CARTESIAN_POINT('',(0.E0,0.E0,6.E0));
#272=DIRECTION('',(0.E0,0.E0,1.E0));
#273=DIRECTION('',(1.E0,0.E0,0.E0));
#274=AXIS2_PLACEMENT_3D('',#271,#272,#273);
#275=PLANE('',#274);
#277=ORIENTED_EDGE('',*,*,#276,.F.);
#279=ORIENTED_EDGE('',*,*,#278,.F.);
#280=EDGE_LOOP('',(#277,#279));
#281=FACE_OUTER_BOUND('',#280,.F.);
#282=ORIENTED_EDGE('',*,*,#250,.F.);
#283=ORIENTED_EDGE('',*,*,#224,.F.);
#284=EDGE_LOOP('',(#282,#283));
#285=FACE_BOUND('',#284,.F.);
#286=ADVANCED_FACE('',(#281,#285),#275,.T.);
#287=FILL_AREA_STYLE_COLOUR('',#15);
#288=FILL_AREA_STYLE('',(#287));
#289=SURFACE_STYLE_FILL_AREA(#288);
#290=SURFACE_SIDE_STYLE('',(#289));
#291=SURFACE_STYLE_USAGE(.POSITIVE.,#290);
#292=FILL_AREA_STYLE_COLOUR('',#31);
#293=FILL_AREA_STYLE('',(#292));
#294=SURFACE_STYLE_FILL_AREA(#293);
#295=SURFACE_SIDE_STYLE('',(#294));
#296=SURFACE_STYLE_USAGE(.NEGATIVE.,#295);
#297=PRESENTATION_STYLE_ASSIGNMENT((#291,#296));
#298=STYLED_ITEM('',(#297),#286);
#299=CARTESIAN_POINT('',(0.E0,0.E0,6.E0));
#300=DIRECTION('',(0.E0,0.E0,-1.E0));
#301=DIRECTION('',(-1.E0,0.E0,0.E0));
#302=AXIS2_PLACEMENT_3D('',#299,#300,#301);
#303=CYLINDRICAL_SURFACE('',#302,7.5E0);
#305=ORIENTED_EDGE('',*,*,#304,.T.);
#307=ORIENTED_EDGE('',*,*,#306,.T.);
#309=ORIENTED_EDGE('',*,*,#308,.T.);
#310=ORIENTED_EDGE('',*,*,#276,.T.);
#311=EDGE_LOOP('',(#305,#307,#309,#310));
#312=FACE_OUTER_BOUND('',#311,.F.);
#313=ADVANCED_FACE('',(#312),#303,.T.);
#314=FILL_AREA_STYLE_COLOUR('',#15);
#315=FILL_AREA_STYLE('',(#314));
#316=SURFACE_STYLE_FILL_AREA(#315);
#317=SURFACE_SIDE_STYLE('',(#316));
#318=SURFACE_STYLE_USAGE(.POSITIVE.,#317);
#319=FILL_AREA_STYLE_COLOUR('',#31);
#320=FILL_AREA_STYLE('',(#319));
#321=SURFACE_STYLE_FILL_AREA(#320);
#322=SURFACE_SIDE_STYLE('',(#321));
#323=SURFACE_STYLE_USAGE(.NEGATIVE.,#322);
#324=PRESENTATION_STYLE_ASSIGNMENT((#318,#323));
#325=STYLED_ITEM('',(#324),#313);
#326=CARTESIAN_POINT('',(0.E0,0.E0,6.E0));
#327=DIRECTION('',(0.E0,0.E0,-1.E0));
#328=DIRECTION('',(-1.E0,0.E0,0.E0));
#329=AXIS2_PLACEMENT_3D('',#326,#327,#328);
#330=CYLINDRICAL_SURFACE('',#329,7.5E0);
#331=ORIENTED_EDGE('',*,*,#278,.T.);
#332=ORIENTED_EDGE('',*,*,#308,.F.);
#334=ORIENTED_EDGE('',*,*,#333,.T.);
#335=ORIENTED_EDGE('',*,*,#304,.F.);
#336=EDGE_LOOP('',(#331,#332,#334,#335));
#337=FACE_OUTER_BOUND('',#336,.F.);
#338=ADVANCED_FACE('',(#337),#330,.T.);
#339=FILL_AREA_STYLE_COLOUR('',#15);
#340=FILL_AREA_STYLE('',(#339));
#341=SURFACE_STYLE_FILL_AREA(#340);
#342=SURFACE_SIDE_STYLE('',(#341));
#343=SURFACE_STYLE_USAGE(.POSITIVE.,#342);
#344=FILL_AREA_STYLE_COLOUR('',#31);
#345=FILL_AREA_STYLE('',(#344));
#346=SURFACE_STYLE_FILL_AREA(#345);
#347=SURFACE_SIDE_STYLE('',(#346));
#348=SURFACE_STYLE_USAGE(.NEGATIVE.,#347);
#349=PRESENTATION_STYLE_ASSIGNMENT((#343,#348));
#350=STYLED_ITEM('',(#349),#338);
#351=CARTESIAN_POINT('',(0.E0,0.E0,5.7E0));
#352=DIRECTION('',(0.E0,0.E0,1.E0));
#353=DIRECTION('',(1.E0,0.E0,0.E0));
#354=AXIS2_PLACEMENT_3D('',#351,#352,#353);
#355=PLANE('',#354);
#357=ORIENTED_EDGE('',*,*,#356,.F.);
#359=ORIENTED_EDGE('',*,*,#358,.F.);
#360=EDGE_LOOP('',(#357,#359));
#361=FACE_OUTER_BOUND('',#360,.F.);
#362=ORIENTED_EDGE('',*,*,#306,.F.);
#363=ORIENTED_EDGE('',*,*,#333,.F.);
#364=EDGE_LOOP('',(#362,#363));
#365=FACE_BOUND('',#364,.F.);
#366=ADVANCED_FACE('',(#361,#365),#355,.T.);
#367=FILL_AREA_STYLE_COLOUR('',#15);
#368=FILL_AREA_STYLE('',(#367));
#369=SURFACE_STYLE_FILL_AREA(#368);
#370=SURFACE_SIDE_STYLE('',(#369));
#371=SURFACE_STYLE_USAGE(.POSITIVE.,#370);
#372=FILL_AREA_STYLE_COLOUR('',#31);
#373=FILL_AREA_STYLE('',(#372));
#374=SURFACE_STYLE_FILL_AREA(#373);
#375=SURFACE_SIDE_STYLE('',(#374));
#376=SURFACE_STYLE_USAGE(.NEGATIVE.,#375);
#377=PRESENTATION_STYLE_ASSIGNMENT((#371,#376));
#378=STYLED_ITEM('',(#377),#366);
#379=CARTESIAN_POINT('',(0.E0,0.E0,5.7E0));
#380=DIRECTION('',(0.E0,0.E0,-1.E0));
#381=DIRECTION('',(-1.E0,0.E0,0.E0));
#382=AXIS2_PLACEMENT_3D('',#379,#380,#381);
#383=CYLINDRICAL_SURFACE('',#382,8.65E0);
#385=ORIENTED_EDGE('',*,*,#384,.T.);
#387=ORIENTED_EDGE('',*,*,#386,.T.);
#389=ORIENTED_EDGE('',*,*,#388,.T.);
#390=ORIENTED_EDGE('',*,*,#356,.T.);
#391=EDGE_LOOP('',(#385,#387,#389,#390));
#392=FACE_OUTER_BOUND('',#391,.F.);
#393=ADVANCED_FACE('',(#392),#383,.T.);
#394=FILL_AREA_STYLE_COLOUR('',#15);
#395=FILL_AREA_STYLE('',(#394));
#396=SURFACE_STYLE_FILL_AREA(#395);
#397=SURFACE_SIDE_STYLE('',(#396));
#398=SURFACE_STYLE_USAGE(.POSITIVE.,#397);
#399=FILL_AREA_STYLE_COLOUR('',#31);
#400=FILL_AREA_STYLE('',(#399));
#401=SURFACE_STYLE_FILL_AREA(#400);
#402=SURFACE_SIDE_STYLE('',(#401));
#403=SURFACE_STYLE_USAGE(.NEGATIVE.,#402);
#404=PRESENTATION_STYLE_ASSIGNMENT((#398,#403));
#405=STYLED_ITEM('',(#404),#393);
#406=CARTESIAN_POINT('',(0.E0,0.E0,5.7E0));
#407=DIRECTION('',(0.E0,0.E0,-1.E0));
#408=DIRECTION('',(-1.E0,0.E0,0.E0));
#409=AXIS2_PLACEMENT_3D('',#406,#407,#408);
#410=CYLINDRICAL_SURFACE('',#409,8.65E0);
#411=ORIENTED_EDGE('',*,*,#358,.T.);
#412=ORIENTED_EDGE('',*,*,#388,.F.);
#414=ORIENTED_EDGE('',*,*,#413,.T.);
#415=ORIENTED_EDGE('',*,*,#384,.F.);
#416=EDGE_LOOP('',(#411,#412,#414,#415));
#417=FACE_OUTER_BOUND('',#416,.F.);
#418=ADVANCED_FACE('',(#417),#410,.T.);
#419=FILL_AREA_STYLE_COLOUR('',#15);
#420=FILL_AREA_STYLE('',(#419));
#421=SURFACE_STYLE_FILL_AREA(#420);
#422=SURFACE_SIDE_STYLE('',(#421));
#423=SURFACE_STYLE_USAGE(.POSITIVE.,#422);
#424=FILL_AREA_STYLE_COLOUR('',#31);
#425=FILL_AREA_STYLE('',(#424));
#426=SURFACE_STYLE_FILL_AREA(#425);
#427=SURFACE_SIDE_STYLE('',(#426));
#428=SURFACE_STYLE_USAGE(.NEGATIVE.,#427);
#429=PRESENTATION_STYLE_ASSIGNMENT((#423,#428));
#430=STYLED_ITEM('',(#429),#418);
#431=CARTESIAN_POINT('',(0.E0,0.E0,3.1E0));
#432=DIRECTION('',(0.E0,0.E0,1.E0));
#433=DIRECTION('',(1.E0,0.E0,0.E0));
#434=AXIS2_PLACEMENT_3D('',#431,#432,#433);
#435=PLANE('',#434);
#437=ORIENTED_EDGE('',*,*,#436,.F.);
#439=ORIENTED_EDGE('',*,*,#438,.F.);
#440=EDGE_LOOP('',(#437,#439));
#441=FACE_OUTER_BOUND('',#440,.F.);
#442=ORIENTED_EDGE('',*,*,#386,.F.);
#443=ORIENTED_EDGE('',*,*,#413,.F.);
#444=EDGE_LOOP('',(#442,#443));
#445=FACE_BOUND('',#444,.F.);
#446=ADVANCED_FACE('',(#441,#445),#435,.T.);
#447=FILL_AREA_STYLE_COLOUR('',#15);
#448=FILL_AREA_STYLE('',(#447));
#449=SURFACE_STYLE_FILL_AREA(#448);
#450=SURFACE_SIDE_STYLE('',(#449));
#451=SURFACE_STYLE_USAGE(.POSITIVE.,#450);
#452=FILL_AREA_STYLE_COLOUR('',#31);
#453=FILL_AREA_STYLE('',(#452));
#454=SURFACE_STYLE_FILL_AREA(#453);
#455=SURFACE_SIDE_STYLE('',(#454));
#456=SURFACE_STYLE_USAGE(.NEGATIVE.,#455);
#457=PRESENTATION_STYLE_ASSIGNMENT((#451,#456));
#458=STYLED_ITEM('',(#457),#446);
#459=CARTESIAN_POINT('',(0.E0,0.E0,3.1E0));
#460=DIRECTION('',(0.E0,0.E0,-1.E0));
#461=DIRECTION('',(-1.E0,0.E0,0.E0));
#462=AXIS2_PLACEMENT_3D('',#459,#460,#461);
#463=CYLINDRICAL_SURFACE('',#462,1.025E1);
#465=ORIENTED_EDGE('',*,*,#464,.T.);
#467=ORIENTED_EDGE('',*,*,#466,.F.);
#469=ORIENTED_EDGE('',*,*,#468,.T.);
#470=ORIENTED_EDGE('',*,*,#436,.T.);
#471=EDGE_LOOP('',(#465,#467,#469,#470));
#472=FACE_OUTER_BOUND('',#471,.F.);
#473=ADVANCED_FACE('',(#472),#463,.T.);
#474=FILL_AREA_STYLE_COLOUR('',#15);
#475=FILL_AREA_STYLE('',(#474));
#476=SURFACE_STYLE_FILL_AREA(#475);
#477=SURFACE_SIDE_STYLE('',(#476));
#478=SURFACE_STYLE_USAGE(.POSITIVE.,#477);
#479=FILL_AREA_STYLE_COLOUR('',#31);
#480=FILL_AREA_STYLE('',(#479));
#481=SURFACE_STYLE_FILL_AREA(#480);
#482=SURFACE_SIDE_STYLE('',(#481));
#483=SURFACE_STYLE_USAGE(.NEGATIVE.,#482);
#484=PRESENTATION_STYLE_ASSIGNMENT((#478,#483));
#485=STYLED_ITEM('',(#484),#473);
#486=CARTESIAN_POINT('',(0.E0,0.E0,3.1E0));
#487=DIRECTION('',(0.E0,0.E0,-1.E0));
#488=DIRECTION('',(-1.E0,0.E0,0.E0));
#489=AXIS2_PLACEMENT_3D('',#486,#487,#488);
#490=CYLINDRICAL_SURFACE('',#489,1.025E1);
#491=ORIENTED_EDGE('',*,*,#438,.T.);
#492=ORIENTED_EDGE('',*,*,#468,.F.);
#494=ORIENTED_EDGE('',*,*,#493,.F.);
#495=ORIENTED_EDGE('',*,*,#464,.F.);
#496=EDGE_LOOP('',(#491,#492,#494,#495));
#497=FACE_OUTER_BOUND('',#496,.F.);
#498=ADVANCED_FACE('',(#497),#490,.T.);
#499=FILL_AREA_STYLE_COLOUR('',#15);
#500=FILL_AREA_STYLE('',(#499));
#501=SURFACE_STYLE_FILL_AREA(#500);
#502=SURFACE_SIDE_STYLE('',(#501));
#503=SURFACE_STYLE_USAGE(.POSITIVE.,#502);
#504=FILL_AREA_STYLE_COLOUR('',#31);
#505=FILL_AREA_STYLE('',(#504));
#506=SURFACE_STYLE_FILL_AREA(#505);
#507=SURFACE_SIDE_STYLE('',(#506));
#508=SURFACE_STYLE_USAGE(.NEGATIVE.,#507);
#509=PRESENTATION_STYLE_ASSIGNMENT((#503,#508));
#510=STYLED_ITEM('',(#509),#498);
#511=CARTESIAN_POINT('',(0.E0,0.E0,8.E-1));
#512=DIRECTION('',(0.E0,0.E0,1.E0));
#513=DIRECTION('',(1.E0,0.E0,0.E0));
#514=AXIS2_PLACEMENT_3D('',#511,#512,#513);
#515=PLANE('',#514);
#516=ORIENTED_EDGE('',*,*,#493,.T.);
#517=ORIENTED_EDGE('',*,*,#466,.T.);
#518=EDGE_LOOP('',(#516,#517));
#519=FACE_OUTER_BOUND('',#518,.F.);
#521=ORIENTED_EDGE('',*,*,#520,.T.);
#523=ORIENTED_EDGE('',*,*,#522,.T.);
#524=EDGE_LOOP('',(#521,#523));
#525=FACE_BOUND('',#524,.F.);
#526=ADVANCED_FACE('',(#519,#525),#515,.F.);
#527=FILL_AREA_STYLE_COLOUR('',#16);
#528=FILL_AREA_STYLE('',(#527));
#529=SURFACE_STYLE_FILL_AREA(#528);
#530=SURFACE_SIDE_STYLE('',(#529));
#531=SURFACE_STYLE_USAGE(.POSITIVE.,#530);
#532=FILL_AREA_STYLE_COLOUR('',#31);
#533=FILL_AREA_STYLE('',(#532));
#534=SURFACE_STYLE_FILL_AREA(#533);
#535=SURFACE_SIDE_STYLE('',(#534));
#536=SURFACE_STYLE_USAGE(.NEGATIVE.,#535);
#537=PRESENTATION_STYLE_ASSIGNMENT((#531,#536));
#538=STYLED_ITEM('',(#537),#526);
#539=CARTESIAN_POINT('',(0.E0,0.E0,8.E-1));
#540=DIRECTION('',(0.E0,0.E0,-1.E0));
#541=DIRECTION('',(-1.E0,0.E0,0.E0));
#542=AXIS2_PLACEMENT_3D('',#539,#540,#541);
#543=CYLINDRICAL_SURFACE('',#542,8.E0);
#544=ORIENTED_EDGE('',*,*,#520,.F.);
#546=ORIENTED_EDGE('',*,*,#545,.F.);
#548=ORIENTED_EDGE('',*,*,#547,.F.);
#550=ORIENTED_EDGE('',*,*,#549,.F.);
#551=EDGE_LOOP('',(#544,#546,#548,#550));
#552=FACE_OUTER_BOUND('',#551,.F.);
#553=ADVANCED_FACE('',(#552),#543,.T.);
#554=FILL_AREA_STYLE_COLOUR('',#16);
#555=FILL_AREA_STYLE('',(#554));
#556=SURFACE_STYLE_FILL_AREA(#555);
#557=SURFACE_SIDE_STYLE('',(#556));
#558=SURFACE_STYLE_USAGE(.POSITIVE.,#557);
#559=FILL_AREA_STYLE_COLOUR('',#31);
#560=FILL_AREA_STYLE('',(#559));
#561=SURFACE_STYLE_FILL_AREA(#560);
#562=SURFACE_SIDE_STYLE('',(#561));
#563=SURFACE_STYLE_USAGE(.NEGATIVE.,#562);
#564=PRESENTATION_STYLE_ASSIGNMENT((#558,#563));
#565=STYLED_ITEM('',(#564),#553);
#566=CARTESIAN_POINT('',(0.E0,0.E0,8.E-1));
#567=DIRECTION('',(0.E0,0.E0,-1.E0));
#568=DIRECTION('',(-1.E0,0.E0,0.E0));
#569=AXIS2_PLACEMENT_3D('',#566,#567,#568);
#570=CYLINDRICAL_SURFACE('',#569,8.E0);
#571=ORIENTED_EDGE('',*,*,#549,.T.);
#573=ORIENTED_EDGE('',*,*,#572,.F.);
#574=ORIENTED_EDGE('',*,*,#545,.T.);
#575=ORIENTED_EDGE('',*,*,#522,.F.);
#576=EDGE_LOOP('',(#571,#573,#574,#575));
#577=FACE_OUTER_BOUND('',#576,.F.);
#578=ADVANCED_FACE('',(#577),#570,.T.);
#579=FILL_AREA_STYLE_COLOUR('',#16);
#580=FILL_AREA_STYLE('',(#579));
#581=SURFACE_STYLE_FILL_AREA(#580);
#582=SURFACE_SIDE_STYLE('',(#581));
#583=SURFACE_STYLE_USAGE(.POSITIVE.,#582);
#584=FILL_AREA_STYLE_COLOUR('',#31);
#585=FILL_AREA_STYLE('',(#584));
#586=SURFACE_STYLE_FILL_AREA(#585);
#587=SURFACE_SIDE_STYLE('',(#586));
#588=SURFACE_STYLE_USAGE(.NEGATIVE.,#587);
#589=PRESENTATION_STYLE_ASSIGNMENT((#583,#588));
#590=STYLED_ITEM('',(#589),#578);
#591=CARTESIAN_POINT('',(0.E0,0.E0,0.E0));
#592=DIRECTION('',(0.E0,0.E0,1.E0));
#593=DIRECTION('',(1.E0,0.E0,0.E0));
#594=AXIS2_PLACEMENT_3D('',#591,#592,#593);
#595=PLANE('',#594);
#596=ORIENTED_EDGE('',*,*,#547,.T.);
#597=ORIENTED_EDGE('',*,*,#572,.T.);
#598=EDGE_LOOP('',(#596,#597));
#599=FACE_OUTER_BOUND('',#598,.F.);
#600=ADVANCED_FACE('',(#599),#595,.F.);
#601=FILL_AREA_STYLE_COLOUR('',#16);
#602=FILL_AREA_STYLE('',(#601));
#603=SURFACE_STYLE_FILL_AREA(#602);
#604=SURFACE_SIDE_STYLE('',(#603));
#605=SURFACE_STYLE_USAGE(.POSITIVE.,#604);
#606=FILL_AREA_STYLE_COLOUR('',#31);
#607=FILL_AREA_STYLE('',(#606));
#608=SURFACE_STYLE_FILL_AREA(#607);
#609=SURFACE_SIDE_STYLE('',(#608));
#610=SURFACE_STYLE_USAGE(.NEGATIVE.,#609);
#611=PRESENTATION_STYLE_ASSIGNMENT((#605,#610));
#612=STYLED_ITEM('',(#611),#600);
#613=CARTESIAN_POINT('',(0.E0,0.E0,5.925E0));
#614=DIRECTION('',(0.E0,0.E0,1.E0));
#615=DIRECTION('',(1.E0,0.E0,0.E0));
#616=AXIS2_PLACEMENT_3D('',#613,#614,#615);
#617=PLANE('',#616);
#618=ORIENTED_EDGE('',*,*,#253,.F.);
#619=ORIENTED_EDGE('',*,*,#228,.F.);
#620=EDGE_LOOP('',(#618,#619));
#621=FACE_OUTER_BOUND('',#620,.F.);
#622=ADVANCED_FACE('',(#621),#617,.T.);
#623=FILL_AREA_STYLE_COLOUR('',#15);
#624=FILL_AREA_STYLE('',(#623));
#625=SURFACE_STYLE_FILL_AREA(#624);
#626=SURFACE_SIDE_STYLE('',(#625));
#627=SURFACE_STYLE_USAGE(.POSITIVE.,#626);
#628=FILL_AREA_STYLE_COLOUR('',#31);
#629=FILL_AREA_STYLE('',(#628));
#630=SURFACE_STYLE_FILL_AREA(#629);
#631=SURFACE_SIDE_STYLE('',(#630));
#632=SURFACE_STYLE_USAGE(.NEGATIVE.,#631);
#633=PRESENTATION_STYLE_ASSIGNMENT((#627,#632));
#634=STYLED_ITEM('',(#633),#622);
#635=CLOSED_SHELL('',(#232,#258,#286,#313,#338,#366,#393,#418,#446,#473,#498,
#526,#553,#578,#600,#622));
#636=MANIFOLD_SOLID_BREP('',#635);
#637=PRESENTATION_LAYER_ASSIGNMENT('INTFCLR_1','',(#636));
#639=DIMENSIONAL_EXPONENTS(0.E0,0.E0,0.E0,0.E0,0.E0,0.E0,0.E0);
#641=PLANE_ANGLE_MEASURE_WITH_UNIT(PLANE_ANGLE_MEASURE(1.745329251994E-2),#640);
#642=(CONVERSION_BASED_UNIT('DEGREE',#641)NAMED_UNIT(*)PLANE_ANGLE_UNIT());
#644=UNCERTAINTY_MEASURE_WITH_UNIT(LENGTH_MEASURE(2.960455849261E-3),#638,
'closure',
'Maximum model space distance between geometric entities at asserted connectivities');
#645=(GEOMETRIC_REPRESENTATION_CONTEXT(3)GLOBAL_UNCERTAINTY_ASSIGNED_CONTEXT((
#644))GLOBAL_UNIT_ASSIGNED_CONTEXT((#638,#642,#643))REPRESENTATION_CONTEXT
('ID1','3'));
#647=MECHANICAL_DESIGN_GEOMETRIC_PRESENTATION_REPRESENTATION('',(#244,#270,#298,
#325,#350,#378,#405,#430,#458,#485,#510,#538,#565,#590,#612,#634),#645);
#648=APPLICATION_CONTEXT(
'CONFIGURATION CONTROLLED 3D DESIGNS OF MECHANICAL PARTS AND ASSEMBLIES');
#649=APPLICATION_PROTOCOL_DEFINITION('international standard',
'config_control_design',1994,#648);
#650=DESIGN_CONTEXT('',#648,'design');
#651=MECHANICAL_CONTEXT('',#648,'mechanical');
#652=PRODUCT('E117-50_CB','E117-50_CB','NOT SPECIFIED',(#651));
#653=PRODUCT_DEFINITION_FORMATION_WITH_SPECIFIED_SOURCE('1','LAST_VERSION',#652,
.MADE.);
#657=PRODUCT_CATEGORY('part','');
#658=PRODUCT_RELATED_PRODUCT_CATEGORY('detail','',(#652));
#659=PRODUCT_CATEGORY_RELATIONSHIP('','',#657,#658);
#660=SECURITY_CLASSIFICATION_LEVEL('unclassified');
#661=SECURITY_CLASSIFICATION('','',#660);
#662=CC_DESIGN_SECURITY_CLASSIFICATION(#661,(#653));
#663=APPROVAL_STATUS('approved');
#664=APPROVAL(#663,'');
#665=CC_DESIGN_APPROVAL(#664,(#661,#653,#654));
#666=CALENDAR_DATE(117,13,6);
#667=COORDINATED_UNIVERSAL_TIME_OFFSET(2,0,.AHEAD.);
#668=LOCAL_TIME(14,33,3.7E1,#667);
#669=DATE_AND_TIME(#666,#668);
#670=APPROVAL_DATE_TIME(#669,#664);
#671=DATE_TIME_ROLE('creation_date');
#672=CC_DESIGN_DATE_AND_TIME_ASSIGNMENT(#669,#671,(#654));
#673=DATE_TIME_ROLE('classification_date');
#674=CC_DESIGN_DATE_AND_TIME_ASSIGNMENT(#669,#673,(#661));
#675=PERSON('UNSPECIFIED','UNSPECIFIED',$,$,$,$);
#676=ORGANIZATION('UNSPECIFIED','UNSPECIFIED','UNSPECIFIED');
#677=PERSON_AND_ORGANIZATION(#675,#676);
#678=APPROVAL_ROLE('approver');
#679=APPROVAL_PERSON_ORGANIZATION(#677,#664,#678);
#680=PERSON_AND_ORGANIZATION_ROLE('creator');
#681=CC_DESIGN_PERSON_AND_ORGANIZATION_ASSIGNMENT(#677,#680,(#653,#654));
#682=PERSON_AND_ORGANIZATION_ROLE('design_supplier');
#683=CC_DESIGN_PERSON_AND_ORGANIZATION_ASSIGNMENT(#677,#682,(#653));
#684=PERSON_AND_ORGANIZATION_ROLE('classification_officer');
#685=CC_DESIGN_PERSON_AND_ORGANIZATION_ASSIGNMENT(#677,#684,(#661));
#686=PERSON_AND_ORGANIZATION_ROLE('design_owner');
#687=CC_DESIGN_PERSON_AND_ORGANIZATION_ASSIGNMENT(#677,#686,(#652));
#1=COLOUR_RGB('',0.E0,0.E0,1.96E-1);
#2=COLOUR_RGB('',0.E0,0.E0,3.14E-1);
#3=COLOUR_RGB('',0.E0,1.96E-1,0.E0);
#4=COLOUR_RGB('',0.E0,3.14E-1,0.E0);
#5=DRAUGHTING_PRE_DEFINED_COLOUR('cyan');
#6=COLOUR_RGB('',7.8E-2,7.8E-2,7.8E-2);
#7=COLOUR_RGB('',1.18E-1,1.18E-1,4.71E-1);
#8=COLOUR_RGB('',1.57E-1,1.57E-1,1.57E-1);
#9=COLOUR_RGB('',1.96E-1,0.E0,0.E0);
#10=COLOUR_RGB('',1.96E-1,0.E0,1.96E-1);
#11=COLOUR_RGB('',1.96E-1,5.88E-1,1.96E-1);
#12=COLOUR_RGB('',2.35E-1,2.35E-1,2.35E-1);
#13=COLOUR_RGB('',2.35E-1,2.35E-1,5.88E-1);
#14=COLOUR_RGB('',3.14E-1,3.14E-1,3.14E-1);
#15=COLOUR_RGB('',3.27543E-1,1.E0,6.33116E-1);
#16=COLOUR_RGB('',3.27543E-1,1.E0,6.33116E-1);
#17=COLOUR_RGB('',3.92E-1,0.E0,0.E0);
#18=COLOUR_RGB('',3.92E-1,0.E0,3.92E-1);
#19=COLOUR_RGB('',3.92E-1,3.92E-1,3.92E-1);
#20=COLOUR_RGB('',3.92E-1,3.92E-1,8.63E-1);
#21=COLOUR_RGB('',3.92E-1,5.88E-1,3.92E-1);
#22=COLOUR_RGB('',3.92E-1,5.88E-1,8.63E-1);
#23=COLOUR_RGB('',5.01961E-1,1.E0,5.01961E-1);
#24=COLOUR_RGB('',5.5E-1,5.6E-1,7.E-1);
#25=COLOUR_RGB('',5.88E-1,5.88E-1,5.88E-1);
#26=COLOUR_RGB('',5.88E-1,7.84E-1,5.88E-1);
#27=COLOUR_RGB('',6.2E-1,3.1E-1,6.5E-1);
#28=COLOUR_RGB('',6.8E-1,8.5E-1,1.E0);
#29=COLOUR_RGB('',6.952E-1,7.426E-1,7.9E-1);
#30=COLOUR_RGB('',7.921568627451E-1,8.196078431373E-1,9.333333333333E-1);
#31=COLOUR_RGB('',7.960784313725E-1,8.235294117647E-1,9.372549019608E-1);
#32=COLOUR_RGB('',9.8E-1,3.92E-1,0.E0);
#33=COLOUR_RGB('',9.8E-1,5.88E-1,0.E0);
#34=COLOUR_RGB('',9.8E-1,7.84E-1,0.E0);
#35=COLOUR_RGB('',1.E0,3.7E-1,3.8E-1);
#36=DRAUGHTING_PRE_DEFINED_COLOUR('white');
#49=CIRCLE('',#48,7.5E0);
#54=CIRCLE('',#53,7.5E0);
#59=CIRCLE('',#58,6.5E0);
#64=CIRCLE('',#63,6.5E0);
#77=CIRCLE('',#76,8.65E0);
#82=CIRCLE('',#81,8.65E0);
#87=CIRCLE('',#86,7.5E0);
#92=CIRCLE('',#91,7.5E0);
#105=CIRCLE('',#104,1.025E1);
#110=CIRCLE('',#109,1.025E1);
#115=CIRCLE('',#114,8.65E0);
#120=CIRCLE('',#119,8.65E0);
#133=CIRCLE('',#132,1.025E1);
#138=CIRCLE('',#137,1.025E1);
#143=CIRCLE('',#142,8.E0);
#148=CIRCLE('',#147,8.E0);
#161=CIRCLE('',#160,8.E0);
#166=CIRCLE('',#165,8.E0);
#171=CIRCLE('',#170,6.5E0);
#176=CIRCLE('',#175,6.5E0);
#222=EDGE_CURVE('',#179,#180,#40,.T.);
#224=EDGE_CURVE('',#180,#184,#64,.T.);
#226=EDGE_CURVE('',#184,#182,#44,.T.);
#228=EDGE_CURVE('',#182,#179,#176,.T.);
#250=EDGE_CURVE('',#184,#180,#59,.T.);
#253=EDGE_CURVE('',#179,#182,#171,.T.);
#276=EDGE_CURVE('',#188,#187,#49,.T.);
#278=EDGE_CURVE('',#187,#188,#54,.T.);
#304=EDGE_CURVE('',#187,#192,#68,.T.);
#306=EDGE_CURVE('',#192,#190,#87,.T.);
#308=EDGE_CURVE('',#190,#188,#72,.T.);
#333=EDGE_CURVE('',#190,#192,#92,.T.);
#356=EDGE_CURVE('',#196,#195,#77,.T.);
#358=EDGE_CURVE('',#195,#196,#82,.T.);
#384=EDGE_CURVE('',#195,#200,#96,.T.);
#386=EDGE_CURVE('',#200,#198,#115,.T.);
#388=EDGE_CURVE('',#198,#196,#100,.T.);
#413=EDGE_CURVE('',#198,#200,#120,.T.);
#436=EDGE_CURVE('',#204,#203,#105,.T.);
#438=EDGE_CURVE('',#203,#204,#110,.T.);
#464=EDGE_CURVE('',#203,#208,#124,.T.);
#466=EDGE_CURVE('',#206,#208,#138,.T.);
#468=EDGE_CURVE('',#206,#204,#128,.T.);
#493=EDGE_CURVE('',#208,#206,#133,.T.);
#520=EDGE_CURVE('',#211,#212,#143,.T.);
#522=EDGE_CURVE('',#212,#211,#148,.T.);
#545=EDGE_CURVE('',#214,#211,#156,.T.);
#547=EDGE_CURVE('',#216,#214,#161,.T.);
#549=EDGE_CURVE('',#212,#216,#152,.T.);
#572=EDGE_CURVE('',#214,#216,#166,.T.);
#638=(LENGTH_UNIT()NAMED_UNIT(*)SI_UNIT(.MILLI.,.METRE.));
#640=(NAMED_UNIT(*)PLANE_ANGLE_UNIT()SI_UNIT($,.RADIAN.));
#643=(NAMED_UNIT(*)SI_UNIT($,.STERADIAN.)SOLID_ANGLE_UNIT());
#646=ADVANCED_BREP_SHAPE_REPRESENTATION('',(#636),#645);
#654=PRODUCT_DEFINITION('design','',#653,#650);
#655=PRODUCT_DEFINITION_SHAPE('','SHAPE FOR E117-50_CB.',#654);
#656=SHAPE_DEFINITION_REPRESENTATION(#655,#646);
ENDSEC;
END-ISO-10303-21;
