ISO-10303-21;
HEADER;
FILE_DESCRIPTION((''),'2;1');
FILE_NAME('DM_CAD-3155','2017-07-28T',('creinig-se'),(''),
'PRO/ENGINEER BY PARAMETRIC TECHNOLOGY CORPORATION, 2015440',
'PRO/ENGINEER BY PARAMETRIC TECHNOLOGY CORPORATION, 2015440','');
FILE_SCHEMA(('CONFIG_CONTROL_DESIGN'));
ENDSEC;
DATA;
#37=CARTESIAN_POINT('',(0.E0,1.2E1,0.E0));
#38=DIRECTION('',(0.E0,1.E0,0.E0));
#39=DIRECTION('',(1.E0,0.E0,0.E0));
#40=AXIS2_PLACEMENT_3D('',#37,#38,#39);
#42=DRAUGHTING_PRE_DEFINED_CURVE_FONT('continuous');
#43=CURVE_STYLE('',#42,POSITIVE_LENGTH_MEASURE(2.E-2),#5);
#44=PRESENTATION_STYLE_ASSIGNMENT((#43));
#45=STYLED_ITEM('',(#44),#41);
#46=CARTESIAN_POINT('',(0.E0,1.2E1,0.E0));
#47=DIRECTION('',(0.E0,1.E0,0.E0));
#48=DIRECTION('',(-1.E0,0.E0,0.E0));
#49=AXIS2_PLACEMENT_3D('',#46,#47,#48);
#51=CURVE_STYLE('',#42,POSITIVE_LENGTH_MEASURE(2.E-2),#5);
#52=PRESENTATION_STYLE_ASSIGNMENT((#51));
#53=STYLED_ITEM('',(#52),#50);
#54=CARTESIAN_POINT('',(0.E0,1.08E1,0.E0));
#55=DIRECTION('',(0.E0,1.E0,0.E0));
#56=DIRECTION('',(1.E0,0.E0,0.E0));
#57=AXIS2_PLACEMENT_3D('',#54,#55,#56);
#59=CURVE_STYLE('',#42,POSITIVE_LENGTH_MEASURE(2.E-2),#5);
#60=PRESENTATION_STYLE_ASSIGNMENT((#59));
#61=STYLED_ITEM('',(#60),#58);
#62=DIRECTION('',(5.E-1,8.660254037844E-1,0.E0));
#63=VECTOR('',#62,1.385640646055E0);
#64=CARTESIAN_POINT('',(-8.E0,1.08E1,0.E0));
#65=LINE('',#64,#63);
#66=CURVE_STYLE('',#42,POSITIVE_LENGTH_MEASURE(2.E-2),#5);
#67=PRESENTATION_STYLE_ASSIGNMENT((#66));
#68=STYLED_ITEM('',(#67),#65);
#69=DIRECTION('',(0.E0,-1.E0,0.E0));
#70=VECTOR('',#69,1.08E1);
#71=CARTESIAN_POINT('',(8.E0,1.08E1,0.E0));
#72=LINE('',#71,#70);
#73=CURVE_STYLE('',#42,POSITIVE_LENGTH_MEASURE(2.E-2),#5);
#74=PRESENTATION_STYLE_ASSIGNMENT((#73));
#75=STYLED_ITEM('',(#74),#72);
#76=DIRECTION('',(0.E0,-1.E0,0.E0));
#77=VECTOR('',#76,1.08E1);
#78=CARTESIAN_POINT('',(-8.E0,1.08E1,0.E0));
#79=LINE('',#78,#77);
#80=CURVE_STYLE('',#42,POSITIVE_LENGTH_MEASURE(2.E-2),#5);
#81=PRESENTATION_STYLE_ASSIGNMENT((#80));
#82=STYLED_ITEM('',(#81),#79);
#83=CARTESIAN_POINT('',(0.E0,0.E0,0.E0));
#84=DIRECTION('',(0.E0,-1.E0,0.E0));
#85=DIRECTION('',(1.E0,0.E0,0.E0));
#86=AXIS2_PLACEMENT_3D('',#83,#84,#85);
#88=CURVE_STYLE('',#42,POSITIVE_LENGTH_MEASURE(2.E-2),#5);
#89=PRESENTATION_STYLE_ASSIGNMENT((#88));
#90=STYLED_ITEM('',(#89),#87);
#91=CARTESIAN_POINT('',(0.E0,0.E0,0.E0));
#92=DIRECTION('',(0.E0,-1.E0,0.E0));
#93=DIRECTION('',(-1.E0,0.E0,0.E0));
#94=AXIS2_PLACEMENT_3D('',#91,#92,#93);
#96=CURVE_STYLE('',#42,POSITIVE_LENGTH_MEASURE(2.E-2),#5);
#97=PRESENTATION_STYLE_ASSIGNMENT((#96));
#98=STYLED_ITEM('',(#97),#95);
#99=CARTESIAN_POINT('',(0.E0,0.E0,0.E0));
#100=DIRECTION('',(0.E0,1.E0,0.E0));
#101=DIRECTION('',(-1.E0,0.E0,0.E0));
#102=AXIS2_PLACEMENT_3D('',#99,#100,#101);
#104=CURVE_STYLE('',#42,POSITIVE_LENGTH_MEASURE(2.E-2),#5);
#105=PRESENTATION_STYLE_ASSIGNMENT((#104));
#106=STYLED_ITEM('',(#105),#103);
#107=CARTESIAN_POINT('',(0.E0,0.E0,0.E0));
#108=DIRECTION('',(0.E0,1.E0,0.E0));
#109=DIRECTION('',(1.E0,0.E0,0.E0));
#110=AXIS2_PLACEMENT_3D('',#107,#108,#109);
#112=CURVE_STYLE('',#42,POSITIVE_LENGTH_MEASURE(2.E-2),#5);
#113=PRESENTATION_STYLE_ASSIGNMENT((#112));
#114=STYLED_ITEM('',(#113),#111);
#115=DIRECTION('',(0.E0,-1.E0,0.E0));
#116=VECTOR('',#115,2.E0);
#117=CARTESIAN_POINT('',(6.E0,2.E0,0.E0));
#118=LINE('',#117,#116);
#119=CURVE_STYLE('',#42,POSITIVE_LENGTH_MEASURE(2.E-2),#5);
#120=PRESENTATION_STYLE_ASSIGNMENT((#119));
#121=STYLED_ITEM('',(#120),#118);
#122=DIRECTION('',(0.E0,-1.E0,0.E0));
#123=VECTOR('',#122,2.E0);
#124=CARTESIAN_POINT('',(-6.E0,2.E0,0.E0));
#125=LINE('',#124,#123);
#126=CURVE_STYLE('',#42,POSITIVE_LENGTH_MEASURE(2.E-2),#5);
#127=PRESENTATION_STYLE_ASSIGNMENT((#126));
#128=STYLED_ITEM('',(#127),#125);
#129=CARTESIAN_POINT('',(0.E0,2.E0,0.E0));
#130=DIRECTION('',(0.E0,-1.E0,0.E0));
#131=DIRECTION('',(1.E0,0.E0,0.E0));
#132=AXIS2_PLACEMENT_3D('',#129,#130,#131);
#134=CURVE_STYLE('',#42,POSITIVE_LENGTH_MEASURE(2.E-2),#5);
#135=PRESENTATION_STYLE_ASSIGNMENT((#134));
#136=STYLED_ITEM('',(#135),#133);
#137=CARTESIAN_POINT('',(0.E0,2.E0,0.E0));
#138=DIRECTION('',(0.E0,-1.E0,0.E0));
#139=DIRECTION('',(-1.E0,0.E0,0.E0));
#140=AXIS2_PLACEMENT_3D('',#137,#138,#139);
#142=CURVE_STYLE('',#42,POSITIVE_LENGTH_MEASURE(2.E-2),#5);
#143=PRESENTATION_STYLE_ASSIGNMENT((#142));
#144=STYLED_ITEM('',(#143),#141);
#145=CARTESIAN_POINT('',(0.E0,2.E0,0.E0));
#146=DIRECTION('',(0.E0,1.E0,0.E0));
#147=DIRECTION('',(-1.E0,0.E0,0.E0));
#148=AXIS2_PLACEMENT_3D('',#145,#146,#147);
#150=CURVE_STYLE('',#42,POSITIVE_LENGTH_MEASURE(2.E-2),#5);
#151=PRESENTATION_STYLE_ASSIGNMENT((#150));
#152=STYLED_ITEM('',(#151),#149);
#153=CARTESIAN_POINT('',(0.E0,2.E0,0.E0));
#154=DIRECTION('',(0.E0,1.E0,0.E0));
#155=DIRECTION('',(1.E0,0.E0,0.E0));
#156=AXIS2_PLACEMENT_3D('',#153,#154,#155);
#158=CURVE_STYLE('',#42,POSITIVE_LENGTH_MEASURE(2.E-2),#5);
#159=PRESENTATION_STYLE_ASSIGNMENT((#158));
#160=STYLED_ITEM('',(#159),#157);
#161=DIRECTION('',(0.E0,-1.E0,0.E0));
#162=VECTOR('',#161,6.E0);
#163=CARTESIAN_POINT('',(5.46E0,8.E0,0.E0));
#164=LINE('',#163,#162);
#165=CURVE_STYLE('',#42,POSITIVE_LENGTH_MEASURE(2.E-2),#5);
#166=PRESENTATION_STYLE_ASSIGNMENT((#165));
#167=STYLED_ITEM('',(#166),#164);
#168=DIRECTION('',(0.E0,-1.E0,0.E0));
#169=VECTOR('',#168,6.E0);
#170=CARTESIAN_POINT('',(-5.46E0,8.E0,0.E0));
#171=LINE('',#170,#169);
#172=CURVE_STYLE('',#42,POSITIVE_LENGTH_MEASURE(2.E-2),#5);
#173=PRESENTATION_STYLE_ASSIGNMENT((#172));
#174=STYLED_ITEM('',(#173),#171);
#175=CARTESIAN_POINT('',(0.E0,8.E0,0.E0));
#176=DIRECTION('',(0.E0,-1.E0,0.E0));
#177=DIRECTION('',(1.E0,0.E0,0.E0));
#178=AXIS2_PLACEMENT_3D('',#175,#176,#177);
#180=CURVE_STYLE('',#42,POSITIVE_LENGTH_MEASURE(2.E-2),#5);
#181=PRESENTATION_STYLE_ASSIGNMENT((#180));
#182=STYLED_ITEM('',(#181),#179);
#183=CARTESIAN_POINT('',(0.E0,8.E0,0.E0));
#184=DIRECTION('',(0.E0,-1.E0,0.E0));
#185=DIRECTION('',(-1.E0,0.E0,0.E0));
#186=AXIS2_PLACEMENT_3D('',#183,#184,#185);
#188=CURVE_STYLE('',#42,POSITIVE_LENGTH_MEASURE(2.E-2),#5);
#189=PRESENTATION_STYLE_ASSIGNMENT((#188));
#190=STYLED_ITEM('',(#189),#187);
#191=DIRECTION('',(-5.E-1,8.660254037844E-1,0.E0));
#192=VECTOR('',#191,1.385640646055E0);
#193=CARTESIAN_POINT('',(8.E0,1.08E1,0.E0));
#194=LINE('',#193,#192);
#195=CURVE_STYLE('',#42,POSITIVE_LENGTH_MEASURE(2.E-2),#5);
#196=PRESENTATION_STYLE_ASSIGNMENT((#195));
#197=STYLED_ITEM('',(#196),#194);
#198=CARTESIAN_POINT('',(0.E0,1.08E1,0.E0));
#199=DIRECTION('',(0.E0,1.E0,0.E0));
#200=DIRECTION('',(-1.E0,0.E0,0.E0));
#201=AXIS2_PLACEMENT_3D('',#198,#199,#200);
#203=CURVE_STYLE('',#42,POSITIVE_LENGTH_MEASURE(2.E-2),#5);
#204=PRESENTATION_STYLE_ASSIGNMENT((#203));
#205=STYLED_ITEM('',(#204),#202);
#206=CARTESIAN_POINT('',(-7.307179676972E0,1.2E1,0.E0));
#207=CARTESIAN_POINT('',(7.307179676972E0,1.2E1,0.E0));
#208=VERTEX_POINT('',#206);
#209=VERTEX_POINT('',#207);
#210=CARTESIAN_POINT('',(5.46E0,8.E0,0.E0));
#211=CARTESIAN_POINT('',(5.46E0,2.E0,0.E0));
#212=VERTEX_POINT('',#210);
#213=VERTEX_POINT('',#211);
#214=CARTESIAN_POINT('',(-5.46E0,8.E0,0.E0));
#215=VERTEX_POINT('',#214);
#216=CARTESIAN_POINT('',(-5.46E0,2.E0,0.E0));
#217=VERTEX_POINT('',#216);
#218=CARTESIAN_POINT('',(-6.E0,2.E0,0.E0));
#219=CARTESIAN_POINT('',(6.E0,2.E0,0.E0));
#220=VERTEX_POINT('',#218);
#221=VERTEX_POINT('',#219);
#222=CARTESIAN_POINT('',(6.E0,0.E0,0.E0));
#223=VERTEX_POINT('',#222);
#224=CARTESIAN_POINT('',(-6.E0,0.E0,0.E0));
#225=VERTEX_POINT('',#224);
#226=CARTESIAN_POINT('',(-8.E0,0.E0,0.E0));
#227=CARTESIAN_POINT('',(8.E0,0.E0,0.E0));
#228=VERTEX_POINT('',#226);
#229=VERTEX_POINT('',#227);
#230=CARTESIAN_POINT('',(-8.E0,1.08E1,0.E0));
#231=VERTEX_POINT('',#230);
#232=CARTESIAN_POINT('',(8.E0,1.08E1,0.E0));
#233=VERTEX_POINT('',#232);
#234=CARTESIAN_POINT('',(3.75E0,1.2E1,0.E0));
#235=DIRECTION('',(0.E0,1.E0,0.E0));
#236=DIRECTION('',(1.E0,0.E0,0.E0));
#237=AXIS2_PLACEMENT_3D('',#234,#235,#236);
#238=PLANE('',#237);
#240=ORIENTED_EDGE('',*,*,#239,.F.);
#242=ORIENTED_EDGE('',*,*,#241,.F.);
#243=EDGE_LOOP('',(#240,#242));
#244=FACE_OUTER_BOUND('',#243,.F.);
#245=ADVANCED_FACE('',(#244),#238,.T.);
#246=CARTESIAN_POINT('',(0.E0,1.14E1,0.E0));
#247=DIRECTION('',(0.E0,-1.E0,0.E0));
#248=DIRECTION('',(-1.E0,0.E0,0.E0));
#249=AXIS2_PLACEMENT_3D('',#246,#247,#248);
#250=CONICAL_SURFACE('',#249,7.653589838486E0,3.E1);
#252=ORIENTED_EDGE('',*,*,#251,.F.);
#254=ORIENTED_EDGE('',*,*,#253,.T.);
#255=ORIENTED_EDGE('',*,*,#239,.T.);
#257=ORIENTED_EDGE('',*,*,#256,.F.);
#258=EDGE_LOOP('',(#252,#254,#255,#257));
#259=FACE_OUTER_BOUND('',#258,.F.);
#260=ADVANCED_FACE('',(#259),#250,.T.);
#261=CARTESIAN_POINT('',(0.E0,4.25E0,0.E0));
#262=DIRECTION('',(0.E0,1.E0,0.E0));
#263=DIRECTION('',(1.E0,0.E0,0.E0));
#264=AXIS2_PLACEMENT_3D('',#261,#262,#263);
#265=CYLINDRICAL_SURFACE('',#264,8.E0);
#266=ORIENTED_EDGE('',*,*,#251,.T.);
#268=ORIENTED_EDGE('',*,*,#267,.T.);
#270=ORIENTED_EDGE('',*,*,#269,.T.);
#272=ORIENTED_EDGE('',*,*,#271,.F.);
#273=EDGE_LOOP('',(#266,#268,#270,#272));
#274=FACE_OUTER_BOUND('',#273,.F.);
#275=ADVANCED_FACE('',(#274),#265,.T.);
#276=CARTESIAN_POINT('',(0.E0,4.25E0,0.E0));
#277=DIRECTION('',(0.E0,1.E0,0.E0));
#278=DIRECTION('',(1.E0,0.E0,0.E0));
#279=AXIS2_PLACEMENT_3D('',#276,#277,#278);
#280=CYLINDRICAL_SURFACE('',#279,8.E0);
#282=ORIENTED_EDGE('',*,*,#281,.T.);
#283=ORIENTED_EDGE('',*,*,#267,.F.);
#285=ORIENTED_EDGE('',*,*,#284,.T.);
#286=ORIENTED_EDGE('',*,*,#271,.T.);
#287=EDGE_LOOP('',(#282,#283,#285,#286));
#288=FACE_OUTER_BOUND('',#287,.F.);
#289=ADVANCED_FACE('',(#288),#280,.T.);
#290=CARTESIAN_POINT('',(6.75E0,0.E0,0.E0));
#291=DIRECTION('',(0.E0,1.E0,0.E0));
#292=DIRECTION('',(1.E0,0.E0,0.E0));
#293=AXIS2_PLACEMENT_3D('',#290,#291,#292);
#294=PLANE('',#293);
#295=ORIENTED_EDGE('',*,*,#281,.F.);
#296=ORIENTED_EDGE('',*,*,#269,.F.);
#297=EDGE_LOOP('',(#295,#296));
#298=FACE_OUTER_BOUND('',#297,.F.);
#300=ORIENTED_EDGE('',*,*,#299,.F.);
#302=ORIENTED_EDGE('',*,*,#301,.F.);
#303=EDGE_LOOP('',(#300,#302));
#304=FACE_BOUND('',#303,.F.);
#305=ADVANCED_FACE('',(#298,#304),#294,.F.);
#306=CARTESIAN_POINT('',(0.E0,7.5E-1,0.E0));
#307=DIRECTION('',(0.E0,1.E0,0.E0));
#308=DIRECTION('',(1.E0,0.E0,0.E0));
#309=AXIS2_PLACEMENT_3D('',#306,#307,#308);
#310=CYLINDRICAL_SURFACE('',#309,6.E0);
#311=ORIENTED_EDGE('',*,*,#299,.T.);
#313=ORIENTED_EDGE('',*,*,#312,.F.);
#315=ORIENTED_EDGE('',*,*,#314,.T.);
#317=ORIENTED_EDGE('',*,*,#316,.T.);
#318=EDGE_LOOP('',(#311,#313,#315,#317));
#319=FACE_OUTER_BOUND('',#318,.F.);
#320=ADVANCED_FACE('',(#319),#310,.F.);
#321=CARTESIAN_POINT('',(0.E0,7.5E-1,0.E0));
#322=DIRECTION('',(0.E0,1.E0,0.E0));
#323=DIRECTION('',(1.E0,0.E0,0.E0));
#324=AXIS2_PLACEMENT_3D('',#321,#322,#323);
#325=CYLINDRICAL_SURFACE('',#324,6.E0);
#326=ORIENTED_EDGE('',*,*,#312,.T.);
#327=ORIENTED_EDGE('',*,*,#301,.T.);
#328=ORIENTED_EDGE('',*,*,#316,.F.);
#330=ORIENTED_EDGE('',*,*,#329,.T.);
#331=EDGE_LOOP('',(#326,#327,#328,#330));
#332=FACE_OUTER_BOUND('',#331,.F.);
#333=ADVANCED_FACE('',(#332),#325,.F.);
#334=CARTESIAN_POINT('',(5.705E0,2.E0,0.E0));
#335=DIRECTION('',(0.E0,1.E0,0.E0));
#336=DIRECTION('',(1.E0,0.E0,0.E0));
#337=AXIS2_PLACEMENT_3D('',#334,#335,#336);
#338=PLANE('',#337);
#339=ORIENTED_EDGE('',*,*,#314,.F.);
#340=ORIENTED_EDGE('',*,*,#329,.F.);
#341=EDGE_LOOP('',(#339,#340));
#342=FACE_OUTER_BOUND('',#341,.F.);
#344=ORIENTED_EDGE('',*,*,#343,.F.);
#346=ORIENTED_EDGE('',*,*,#345,.F.);
#347=EDGE_LOOP('',(#344,#346));
#348=FACE_BOUND('',#347,.F.);
#349=ADVANCED_FACE('',(#342,#348),#338,.F.);
#350=CARTESIAN_POINT('',(0.E0,4.25E0,0.E0));
#351=DIRECTION('',(0.E0,1.E0,0.E0));
#352=DIRECTION('',(1.E0,0.E0,0.E0));
#353=AXIS2_PLACEMENT_3D('',#350,#351,#352);
#354=CYLINDRICAL_SURFACE('',#353,5.46E0);
#355=ORIENTED_EDGE('',*,*,#343,.T.);
#357=ORIENTED_EDGE('',*,*,#356,.F.);
#359=ORIENTED_EDGE('',*,*,#358,.T.);
#361=ORIENTED_EDGE('',*,*,#360,.T.);
#362=EDGE_LOOP('',(#355,#357,#359,#361));
#363=FACE_OUTER_BOUND('',#362,.F.);
#364=ADVANCED_FACE('',(#363),#354,.F.);
#365=CARTESIAN_POINT('',(0.E0,4.25E0,0.E0));
#366=DIRECTION('',(0.E0,1.E0,0.E0));
#367=DIRECTION('',(1.E0,0.E0,0.E0));
#368=AXIS2_PLACEMENT_3D('',#365,#366,#367);
#369=CYLINDRICAL_SURFACE('',#368,5.46E0);
#370=ORIENTED_EDGE('',*,*,#356,.T.);
#371=ORIENTED_EDGE('',*,*,#345,.T.);
#372=ORIENTED_EDGE('',*,*,#360,.F.);
#374=ORIENTED_EDGE('',*,*,#373,.T.);
#375=EDGE_LOOP('',(#370,#371,#372,#374));
#376=FACE_OUTER_BOUND('',#375,.F.);
#377=ADVANCED_FACE('',(#376),#369,.F.);
#378=CARTESIAN_POINT('',(1.392011016562E0,8.E0,-2.167703818344E0));
#379=DIRECTION('',(0.E0,-1.E0,0.E0));
#380=DIRECTION('',(1.E0,0.E0,0.E0));
#381=AXIS2_PLACEMENT_3D('',#378,#379,#380);
#382=PLANE('',#381);
#383=ORIENTED_EDGE('',*,*,#358,.F.);
#384=ORIENTED_EDGE('',*,*,#373,.F.);
#385=EDGE_LOOP('',(#383,#384));
#386=FACE_OUTER_BOUND('',#385,.F.);
#387=ADVANCED_FACE('',(#386),#382,.T.);
#388=CARTESIAN_POINT('',(0.E0,1.14E1,0.E0));
#389=DIRECTION('',(0.E0,-1.E0,0.E0));
#390=DIRECTION('',(-1.E0,0.E0,0.E0));
#391=AXIS2_PLACEMENT_3D('',#388,#389,#390);
#392=CONICAL_SURFACE('',#391,7.653589838486E0,3.E1);
#393=ORIENTED_EDGE('',*,*,#256,.T.);
#394=ORIENTED_EDGE('',*,*,#241,.T.);
#395=ORIENTED_EDGE('',*,*,#253,.F.);
#396=ORIENTED_EDGE('',*,*,#284,.F.);
#397=EDGE_LOOP('',(#393,#394,#395,#396));
#398=FACE_OUTER_BOUND('',#397,.F.);
#399=ADVANCED_FACE('',(#398),#392,.T.);
#400=CLOSED_SHELL('',(#245,#260,#275,#289,#305,#320,#333,#349,#364,#377,#387,
#399));
#401=MANIFOLD_SOLID_BREP('',#400);
#402=FILL_AREA_STYLE_COLOUR('',#5);
#403=FILL_AREA_STYLE('',(#402));
#404=SURFACE_STYLE_FILL_AREA(#403);
#405=SURFACE_SIDE_STYLE('',(#404));
#406=SURFACE_STYLE_USAGE(.BOTH.,#405);
#407=PRESENTATION_STYLE_ASSIGNMENT((#406));
#36=STYLED_ITEM('',(#407),#401);
#408=CARTESIAN_POINT('',(0.E0,0.E0,0.E0));
#409=DIRECTION('',(0.E0,0.E0,1.E0));
#410=DIRECTION('',(1.E0,0.E0,0.E0));
#411=AXIS2_PLACEMENT_3D('STANDARD',#408,#409,#410);
#412=CURVE_STYLE('',#42,POSITIVE_LENGTH_MEASURE(2.E-2),#26);
#413=PRESENTATION_STYLE_ASSIGNMENT((#412));
#414=STYLED_ITEM('',(#413),#411);
#415=DIRECTION('',(-1.E0,0.E0,0.E0));
#416=VECTOR('',#415,1.6E1);
#417=CARTESIAN_POINT('',(8.E0,0.E0,0.E0));
#418=LINE('',#417,#416);
#420=CURVE_STYLE('',#42,POSITIVE_LENGTH_MEASURE(2.E-2),#34);
#421=PRESENTATION_STYLE_ASSIGNMENT((#420));
#422=STYLED_ITEM('',(#421),#419);
#424=DIRECTION('',(0.E0,1.E0,0.E0));
#425=VECTOR('',#424,1.2E1);
#426=CARTESIAN_POINT('',(0.E0,0.E0,0.E0));
#427=LINE('',#426,#425);
#429=CURVE_STYLE('',#42,POSITIVE_LENGTH_MEASURE(2.E-2),#34);
#430=PRESENTATION_STYLE_ASSIGNMENT((#429));
#431=STYLED_ITEM('',(#430),#428);
#432=DIRECTION('',(0.E0,0.E0,1.E0));
#433=VECTOR('',#432,1.601100957584E1);
#434=CARTESIAN_POINT('',(0.E0,0.E0,-8.005504787920E0));
#435=LINE('',#434,#433);
#437=CURVE_STYLE('',#42,POSITIVE_LENGTH_MEASURE(2.E-2),#34);
#438=PRESENTATION_STYLE_ASSIGNMENT((#437));
#439=STYLED_ITEM('',(#438),#436);
#440=PRESENTATION_LAYER_ASSIGNMENT('02___AXES','',(#419,#428,#436));
#441=PRESENTATION_LAYER_ASSIGNMENT('05___CSYS','',(#411));
#443=DIMENSIONAL_EXPONENTS(0.E0,0.E0,0.E0,0.E0,0.E0,0.E0,0.E0);
#445=PLANE_ANGLE_MEASURE_WITH_UNIT(PLANE_ANGLE_MEASURE(1.745329251994E-2),#444);
#446=(CONVERSION_BASED_UNIT('DEGREE',#445)NAMED_UNIT(*)PLANE_ANGLE_UNIT());
#448=UNCERTAINTY_MEASURE_WITH_UNIT(LENGTH_MEASURE(2.561835124464E-3),#442,
'closure',
'Maximum model space distance between geometric entities at asserted connectivities');
#449=(GEOMETRIC_REPRESENTATION_CONTEXT(3)GLOBAL_UNCERTAINTY_ASSIGNED_CONTEXT((
#448))GLOBAL_UNIT_ASSIGNED_CONTEXT((#442,#446,#447))REPRESENTATION_CONTEXT
('ID1','3'));
#423=GEOMETRIC_SET('',(#419,#428,#436));
#453=SHAPE_REPRESENTATION_RELATIONSHIP('','',#452,#450);
#454=SHAPE_REPRESENTATION_RELATIONSHIP('','',#452,#451);
#455=MECHANICAL_DESIGN_GEOMETRIC_PRESENTATION_REPRESENTATION('',(#45,#53,#61,
#68,#75,#82,#90,#98,#106,#114,#121,#128,#136,#144,#152,#160,#167,#174,#182,#190,
#197,#205,#36,#414,#422,#431,#439),#449);
#456=APPLICATION_CONTEXT(
'CONFIGURATION CONTROLLED 3D DESIGNS OF MECHANICAL PARTS AND ASSEMBLIES');
#457=APPLICATION_PROTOCOL_DEFINITION('international standard',
'config_control_design',1994,#456);
#458=DESIGN_CONTEXT('',#456,'design');
#459=MECHANICAL_CONTEXT('',#456,'mechanical');
#460=PRODUCT('DM_CAD-3155','DM_CAD-3155','NOT SPECIFIED',(#459));
#461=PRODUCT_DEFINITION_FORMATION_WITH_SPECIFIED_SOURCE('1','LAST_VERSION',#460,
.MADE.);
#465=PRODUCT_CATEGORY('part','');
#466=PRODUCT_RELATED_PRODUCT_CATEGORY('detail','',(#460));
#467=PRODUCT_CATEGORY_RELATIONSHIP('','',#465,#466);
#468=SECURITY_CLASSIFICATION_LEVEL('unclassified');
#469=SECURITY_CLASSIFICATION('','',#468);
#470=CC_DESIGN_SECURITY_CLASSIFICATION(#469,(#461));
#471=APPROVAL_STATUS('approved');
#472=APPROVAL(#471,'');
#473=CC_DESIGN_APPROVAL(#472,(#469,#461,#462));
#474=CALENDAR_DATE(117,28,7);
#475=COORDINATED_UNIVERSAL_TIME_OFFSET(2,0,.AHEAD.);
#476=LOCAL_TIME(7,52,1.8E1,#475);
#477=DATE_AND_TIME(#474,#476);
#478=APPROVAL_DATE_TIME(#477,#472);
#479=DATE_TIME_ROLE('creation_date');
#480=CC_DESIGN_DATE_AND_TIME_ASSIGNMENT(#477,#479,(#462));
#481=DATE_TIME_ROLE('classification_date');
#482=CC_DESIGN_DATE_AND_TIME_ASSIGNMENT(#477,#481,(#469));
#483=PERSON('UNSPECIFIED','UNSPECIFIED',$,$,$,$);
#484=ORGANIZATION('UNSPECIFIED','UNSPECIFIED','UNSPECIFIED');
#485=PERSON_AND_ORGANIZATION(#483,#484);
#486=APPROVAL_ROLE('approver');
#487=APPROVAL_PERSON_ORGANIZATION(#485,#472,#486);
#488=PERSON_AND_ORGANIZATION_ROLE('creator');
#489=CC_DESIGN_PERSON_AND_ORGANIZATION_ASSIGNMENT(#485,#488,(#461,#462));
#490=PERSON_AND_ORGANIZATION_ROLE('design_supplier');
#491=CC_DESIGN_PERSON_AND_ORGANIZATION_ASSIGNMENT(#485,#490,(#461));
#492=PERSON_AND_ORGANIZATION_ROLE('classification_officer');
#493=CC_DESIGN_PERSON_AND_ORGANIZATION_ASSIGNMENT(#485,#492,(#469));
#494=PERSON_AND_ORGANIZATION_ROLE('design_owner');
#495=CC_DESIGN_PERSON_AND_ORGANIZATION_ASSIGNMENT(#485,#494,(#460));
#1=COLOUR_RGB('',0.E0,0.E0,1.96E-1);
#2=COLOUR_RGB('',0.E0,0.E0,3.14E-1);
#3=COLOUR_RGB('',0.E0,1.96E-1,0.E0);
#4=COLOUR_RGB('',0.E0,3.14E-1,0.E0);
#5=COLOUR_RGB('',0.E0,6.470588235294E-1,5.294117647059E-1);
#6=COLOUR_RGB('',7.8E-2,7.8E-2,7.8E-2);
#7=COLOUR_RGB('',1.18E-1,1.18E-1,4.71E-1);
#8=COLOUR_RGB('',1.57E-1,1.57E-1,1.57E-1);
#9=COLOUR_RGB('',1.96E-1,0.E0,0.E0);
#10=COLOUR_RGB('',1.96E-1,0.E0,1.96E-1);
#11=COLOUR_RGB('',1.96E-1,5.88E-1,1.96E-1);
#12=COLOUR_RGB('',2.35E-1,2.35E-1,2.35E-1);
#13=COLOUR_RGB('',2.35E-1,2.35E-1,5.88E-1);
#14=COLOUR_RGB('',3.14E-1,3.14E-1,3.14E-1);
#15=COLOUR_RGB('',3.27543E-1,1.E0,6.33116E-1);
#16=COLOUR_RGB('',3.92E-1,0.E0,0.E0);
#17=COLOUR_RGB('',3.92E-1,0.E0,3.92E-1);
#18=COLOUR_RGB('',3.92E-1,3.92E-1,3.92E-1);
#19=COLOUR_RGB('',3.92E-1,3.92E-1,8.63E-1);
#20=COLOUR_RGB('',3.92E-1,5.88E-1,3.92E-1);
#21=COLOUR_RGB('',3.92E-1,5.88E-1,8.63E-1);
#22=COLOUR_RGB('',5.01961E-1,1.E0,5.01961E-1);
#23=COLOUR_RGB('',5.5E-1,5.6E-1,7.E-1);
#24=COLOUR_RGB('',5.88E-1,5.88E-1,5.88E-1);
#25=COLOUR_RGB('',5.88E-1,7.84E-1,5.88E-1);
#26=COLOUR_RGB('',6.E-1,4.E-1,2.E-1);
#27=COLOUR_RGB('',6.2E-1,3.1E-1,6.5E-1);
#28=COLOUR_RGB('',6.8E-1,8.5E-1,1.E0);
#29=COLOUR_RGB('',6.952E-1,7.426E-1,7.9E-1);
#30=COLOUR_RGB('',9.8E-1,3.92E-1,0.E0);
#31=COLOUR_RGB('',9.8E-1,5.88E-1,0.E0);
#32=COLOUR_RGB('',9.8E-1,7.84E-1,0.E0);
#33=COLOUR_RGB('',1.E0,3.7E-1,3.8E-1);
#34=COLOUR_RGB('',1.E0,8.E-1,2.E-1);
#35=DRAUGHTING_PRE_DEFINED_COLOUR('white');
#41=CIRCLE('',#40,7.307179676972E0);
#50=CIRCLE('',#49,7.307179676972E0);
#58=CIRCLE('',#57,8.E0);
#87=CIRCLE('',#86,8.E0);
#95=CIRCLE('',#94,8.E0);
#103=CIRCLE('',#102,6.E0);
#111=CIRCLE('',#110,6.E0);
#133=CIRCLE('',#132,6.E0);
#141=CIRCLE('',#140,6.E0);
#149=CIRCLE('',#148,5.46E0);
#157=CIRCLE('',#156,5.46E0);
#179=CIRCLE('',#178,5.46E0);
#187=CIRCLE('',#186,5.46E0);
#202=CIRCLE('',#201,8.E0);
#239=EDGE_CURVE('',#209,#208,#41,.T.);
#241=EDGE_CURVE('',#208,#209,#50,.T.);
#251=EDGE_CURVE('',#233,#231,#58,.T.);
#253=EDGE_CURVE('',#233,#209,#194,.T.);
#256=EDGE_CURVE('',#231,#208,#65,.T.);
#267=EDGE_CURVE('',#231,#228,#79,.T.);
#269=EDGE_CURVE('',#228,#229,#95,.T.);
#271=EDGE_CURVE('',#233,#229,#72,.T.);
#281=EDGE_CURVE('',#229,#228,#87,.T.);
#284=EDGE_CURVE('',#231,#233,#202,.T.);
#299=EDGE_CURVE('',#225,#223,#103,.T.);
#301=EDGE_CURVE('',#223,#225,#111,.T.);
#312=EDGE_CURVE('',#221,#223,#118,.T.);
#314=EDGE_CURVE('',#221,#220,#133,.T.);
#316=EDGE_CURVE('',#220,#225,#125,.T.);
#329=EDGE_CURVE('',#220,#221,#141,.T.);
#343=EDGE_CURVE('',#217,#213,#149,.T.);
#345=EDGE_CURVE('',#213,#217,#157,.T.);
#356=EDGE_CURVE('',#212,#213,#164,.T.);
#358=EDGE_CURVE('',#212,#215,#179,.T.);
#360=EDGE_CURVE('',#215,#217,#171,.T.);
#373=EDGE_CURVE('',#215,#212,#187,.T.);
#419=TRIMMED_CURVE('A_X',#418,(PARAMETER_VALUE(0.E0)),(PARAMETER_VALUE(1.E0)),
.T.,.UNSPECIFIED.);
#428=TRIMMED_CURVE('A_Y',#427,(PARAMETER_VALUE(0.E0)),(PARAMETER_VALUE(1.E0)),
.T.,.UNSPECIFIED.);
#436=TRIMMED_CURVE('A_Z',#435,(PARAMETER_VALUE(0.E0)),(PARAMETER_VALUE(1.E0)),
.T.,.UNSPECIFIED.);
#442=(LENGTH_UNIT()NAMED_UNIT(*)SI_UNIT(.MILLI.,.METRE.));
#444=(NAMED_UNIT(*)PLANE_ANGLE_UNIT()SI_UNIT($,.RADIAN.));
#447=(NAMED_UNIT(*)SI_UNIT($,.STERADIAN.)SOLID_ANGLE_UNIT());
#450=ADVANCED_BREP_SHAPE_REPRESENTATION('',(#401),#449);
#451=GEOMETRICALLY_BOUNDED_SURFACE_SHAPE_REPRESENTATION('',(#423),#449);
#452=SHAPE_REPRESENTATION('',(#411),#449);
#462=PRODUCT_DEFINITION('design','',#461,#458);
#463=PRODUCT_DEFINITION_SHAPE('','SHAPE FOR DM_CAD-3155.',#462);
#464=SHAPE_DEFINITION_REPRESENTATION(#463,#452);
ENDSEC;
END-ISO-10303-21;
