ISO-10303-21;
HEADER;
FILE_DESCRIPTION((''),'2;1');
FILE_NAME('DBCAD3170_PSE4-ALU-PROFIL_3009','2017-08-16T',('pfolte'),(''),
'PRO/ENGINEER BY PARAMETRIC TECHNOLOGY CORPORATION, 2015440',
'PRO/ENGINEER BY PARAMETRIC TECHNOLOGY CORPORATION, 2015440','');
FILE_SCHEMA(('CONFIG_CONTROL_DESIGN'));
ENDSEC;
DATA;
#45=DIRECTION('',(0.E0,-1.E0,0.E0));
#46=VECTOR('',#45,5.E0);
#47=CARTESIAN_POINT('',(-1.3E1,2.5E0,0.E0));
#48=LINE('',#47,#46);
#49=DIRECTION('',(0.E0,0.E0,-1.E0));
#50=VECTOR('',#49,2.5E3);
#51=CARTESIAN_POINT('',(-1.3E1,-2.5E0,0.E0));
#52=LINE('',#51,#50);
#53=DIRECTION('',(0.E0,1.E0,0.E0));
#54=VECTOR('',#53,9.E0);
#55=CARTESIAN_POINT('',(-1.5E1,-4.5E0,0.E0));
#56=LINE('',#55,#54);
#57=DIRECTION('',(0.E0,0.E0,-1.E0));
#58=VECTOR('',#57,2.5E3);
#59=CARTESIAN_POINT('',(-1.5E1,4.5E0,0.E0));
#60=LINE('',#59,#58);
#61=DIRECTION('',(-1.E0,0.E0,0.E0));
#62=VECTOR('',#61,3.E1);
#63=CARTESIAN_POINT('',(1.5E1,-4.5E0,0.E0));
#64=LINE('',#63,#62);
#65=DIRECTION('',(0.E0,0.E0,-1.E0));
#66=VECTOR('',#65,2.5E3);
#67=CARTESIAN_POINT('',(-1.5E1,-4.5E0,0.E0));
#68=LINE('',#67,#66);
#69=DIRECTION('',(0.E0,-1.E0,0.E0));
#70=VECTOR('',#69,9.E0);
#71=CARTESIAN_POINT('',(1.5E1,4.5E0,0.E0));
#72=LINE('',#71,#70);
#73=DIRECTION('',(0.E0,0.E0,-1.E0));
#74=VECTOR('',#73,2.5E3);
#75=CARTESIAN_POINT('',(1.5E1,-4.5E0,0.E0));
#76=LINE('',#75,#74);
#77=DIRECTION('',(1.E0,0.E0,0.E0));
#78=VECTOR('',#77,9.E0);
#79=CARTESIAN_POINT('',(6.E0,4.5E0,0.E0));
#80=LINE('',#79,#78);
#81=DIRECTION('',(0.E0,0.E0,-1.E0));
#82=VECTOR('',#81,2.5E3);
#83=CARTESIAN_POINT('',(1.5E1,4.5E0,0.E0));
#84=LINE('',#83,#82);
#85=DIRECTION('',(0.E0,1.E0,0.E0));
#86=VECTOR('',#85,2.E0);
#87=CARTESIAN_POINT('',(6.E0,2.5E0,0.E0));
#88=LINE('',#87,#86);
#89=DIRECTION('',(0.E0,0.E0,-1.E0));
#90=VECTOR('',#89,2.5E3);
#91=CARTESIAN_POINT('',(6.E0,4.5E0,0.E0));
#92=LINE('',#91,#90);
#93=DIRECTION('',(-1.E0,0.E0,0.E0));
#94=VECTOR('',#93,7.E0);
#95=CARTESIAN_POINT('',(1.3E1,2.5E0,0.E0));
#96=LINE('',#95,#94);
#97=DIRECTION('',(0.E0,0.E0,-1.E0));
#98=VECTOR('',#97,2.5E3);
#99=CARTESIAN_POINT('',(6.E0,2.5E0,0.E0));
#100=LINE('',#99,#98);
#101=DIRECTION('',(0.E0,1.E0,0.E0));
#102=VECTOR('',#101,5.E0);
#103=CARTESIAN_POINT('',(1.3E1,-2.5E0,0.E0));
#104=LINE('',#103,#102);
#105=DIRECTION('',(0.E0,0.E0,-1.E0));
#106=VECTOR('',#105,2.5E3);
#107=CARTESIAN_POINT('',(1.3E1,2.5E0,0.E0));
#108=LINE('',#107,#106);
#109=DIRECTION('',(1.E0,0.E0,2.387125201504E-14));
#110=VECTOR('',#109,1.27E1);
#111=CARTESIAN_POINT('',(3.E-1,-2.5E0,-3.031649005910E-13));
#112=LINE('',#111,#110);
#113=DIRECTION('',(0.E0,0.E0,-1.E0));
#114=VECTOR('',#113,2.5E3);
#115=CARTESIAN_POINT('',(1.3E1,-2.5E0,0.E0));
#116=LINE('',#115,#114);
#117=DIRECTION('',(7.071067811865E-1,7.071067811865E-1,7.145665234188E-13));
#118=VECTOR('',#117,4.242640687119E-1);
#119=CARTESIAN_POINT('',(0.E0,-2.8E0,-6.063298011820E-13));
#120=LINE('',#119,#118);
#121=DIRECTION('',(0.E0,0.E0,-1.E0));
#122=VECTOR('',#121,2.5E3);
#123=CARTESIAN_POINT('',(3.E-1,-2.5E0,-3.031649005910E-13));
#124=LINE('',#123,#122);
#125=DIRECTION('',(7.071067811865E-1,-7.071067811865E-1,-7.145665234187E-13));
#126=VECTOR('',#125,4.242640687119E-1);
#127=CARTESIAN_POINT('',(-3.E-1,-2.5E0,-3.031649005910E-13));
#128=LINE('',#127,#126);
#129=DIRECTION('',(0.E0,0.E0,-1.E0));
#130=VECTOR('',#129,2.5E3);
#131=CARTESIAN_POINT('',(0.E0,-2.8E0,-6.063298011820E-13));
#132=LINE('',#131,#130);
#133=DIRECTION('',(1.E0,0.E0,-2.387125201504E-14));
#134=VECTOR('',#133,1.27E1);
#135=CARTESIAN_POINT('',(-1.3E1,-2.5E0,0.E0));
#136=LINE('',#135,#134);
#137=DIRECTION('',(0.E0,0.E0,-1.E0));
#138=VECTOR('',#137,2.5E3);
#139=CARTESIAN_POINT('',(-3.E-1,-2.5E0,-3.031649005910E-13));
#140=LINE('',#139,#138);
#141=DIRECTION('',(0.E0,1.E0,0.E0));
#142=VECTOR('',#141,9.E0);
#143=CARTESIAN_POINT('',(-1.5E1,-4.5E0,-2.5E3));
#144=LINE('',#143,#142);
#145=DIRECTION('',(-1.E0,0.E0,0.E0));
#146=VECTOR('',#145,3.E1);
#147=CARTESIAN_POINT('',(1.5E1,-4.5E0,-2.5E3));
#148=LINE('',#147,#146);
#149=DIRECTION('',(0.E0,-1.E0,0.E0));
#150=VECTOR('',#149,9.E0);
#151=CARTESIAN_POINT('',(1.5E1,4.5E0,-2.5E3));
#152=LINE('',#151,#150);
#153=DIRECTION('',(1.E0,0.E0,0.E0));
#154=VECTOR('',#153,9.E0);
#155=CARTESIAN_POINT('',(6.E0,4.5E0,-2.5E3));
#156=LINE('',#155,#154);
#157=DIRECTION('',(0.E0,1.E0,0.E0));
#158=VECTOR('',#157,2.E0);
#159=CARTESIAN_POINT('',(6.E0,2.5E0,-2.5E3));
#160=LINE('',#159,#158);
#161=DIRECTION('',(-1.E0,0.E0,0.E0));
#162=VECTOR('',#161,7.E0);
#163=CARTESIAN_POINT('',(1.3E1,2.5E0,-2.5E3));
#164=LINE('',#163,#162);
#165=DIRECTION('',(0.E0,1.E0,0.E0));
#166=VECTOR('',#165,5.E0);
#167=CARTESIAN_POINT('',(1.3E1,-2.5E0,-2.5E3));
#168=LINE('',#167,#166);
#169=DIRECTION('',(1.E0,0.E0,0.E0));
#170=VECTOR('',#169,1.27E1);
#171=CARTESIAN_POINT('',(3.E-1,-2.5E0,-2.5E3));
#172=LINE('',#171,#170);
#173=DIRECTION('',(7.071067811865E-1,7.071067811865E-1,0.E0));
#174=VECTOR('',#173,4.242640687119E-1);
#175=CARTESIAN_POINT('',(0.E0,-2.8E0,-2.5E3));
#176=LINE('',#175,#174);
#177=DIRECTION('',(7.071067811865E-1,-7.071067811865E-1,0.E0));
#178=VECTOR('',#177,4.242640687119E-1);
#179=CARTESIAN_POINT('',(-3.E-1,-2.5E0,-2.5E3));
#180=LINE('',#179,#178);
#181=DIRECTION('',(1.E0,0.E0,0.E0));
#182=VECTOR('',#181,1.27E1);
#183=CARTESIAN_POINT('',(-1.3E1,-2.5E0,-2.5E3));
#184=LINE('',#183,#182);
#185=DIRECTION('',(0.E0,-1.E0,0.E0));
#186=VECTOR('',#185,5.E0);
#187=CARTESIAN_POINT('',(-1.3E1,2.5E0,-2.5E3));
#188=LINE('',#187,#186);
#189=DIRECTION('',(-1.E0,0.E0,0.E0));
#190=VECTOR('',#189,7.E0);
#191=CARTESIAN_POINT('',(-6.E0,2.5E0,-2.5E3));
#192=LINE('',#191,#190);
#193=DIRECTION('',(0.E0,-1.E0,0.E0));
#194=VECTOR('',#193,2.E0);
#195=CARTESIAN_POINT('',(-6.E0,4.5E0,-2.5E3));
#196=LINE('',#195,#194);
#197=DIRECTION('',(1.E0,0.E0,0.E0));
#198=VECTOR('',#197,9.E0);
#199=CARTESIAN_POINT('',(-1.5E1,4.5E0,-2.5E3));
#200=LINE('',#199,#198);
#201=DIRECTION('',(-1.E0,0.E0,0.E0));
#202=VECTOR('',#201,7.E0);
#203=CARTESIAN_POINT('',(-6.E0,2.5E0,0.E0));
#204=LINE('',#203,#202);
#205=DIRECTION('',(0.E0,0.E0,-1.E0));
#206=VECTOR('',#205,2.5E3);
#207=CARTESIAN_POINT('',(-1.3E1,2.5E0,0.E0));
#208=LINE('',#207,#206);
#209=DIRECTION('',(0.E0,-1.E0,0.E0));
#210=VECTOR('',#209,2.E0);
#211=CARTESIAN_POINT('',(-6.E0,4.5E0,0.E0));
#212=LINE('',#211,#210);
#213=DIRECTION('',(0.E0,0.E0,-1.E0));
#214=VECTOR('',#213,2.5E3);
#215=CARTESIAN_POINT('',(-6.E0,2.5E0,0.E0));
#216=LINE('',#215,#214);
#217=DIRECTION('',(1.E0,0.E0,0.E0));
#218=VECTOR('',#217,9.E0);
#219=CARTESIAN_POINT('',(-1.5E1,4.5E0,0.E0));
#220=LINE('',#219,#218);
#221=DIRECTION('',(0.E0,0.E0,-1.E0));
#222=VECTOR('',#221,2.5E3);
#223=CARTESIAN_POINT('',(-6.E0,4.5E0,0.E0));
#224=LINE('',#223,#222);
#225=CARTESIAN_POINT('',(-1.3E1,-2.5E0,-2.5E3));
#226=CARTESIAN_POINT('',(-3.E-1,-2.5E0,-2.5E3));
#227=VERTEX_POINT('',#225);
#228=VERTEX_POINT('',#226);
#229=CARTESIAN_POINT('',(-6.E0,2.5E0,0.E0));
#230=CARTESIAN_POINT('',(-6.E0,2.5E0,-2.5E3));
#231=VERTEX_POINT('',#229);
#232=VERTEX_POINT('',#230);
#233=CARTESIAN_POINT('',(1.3E1,-2.5E0,-2.5E3));
#234=CARTESIAN_POINT('',(1.3E1,2.5E0,-2.5E3));
#235=VERTEX_POINT('',#233);
#236=VERTEX_POINT('',#234);
#237=CARTESIAN_POINT('',(6.E0,2.5E0,-2.5E3));
#238=CARTESIAN_POINT('',(6.E0,4.5E0,-2.5E3));
#239=VERTEX_POINT('',#237);
#240=VERTEX_POINT('',#238);
#241=CARTESIAN_POINT('',(3.E-1,-2.5E0,-3.031649005910E-13));
#242=CARTESIAN_POINT('',(3.E-1,-2.5E0,-2.5E3));
#243=VERTEX_POINT('',#241);
#244=VERTEX_POINT('',#242);
#245=CARTESIAN_POINT('',(1.5E1,-4.5E0,-2.5E3));
#246=CARTESIAN_POINT('',(-1.5E1,-4.5E0,-2.5E3));
#247=VERTEX_POINT('',#245);
#248=VERTEX_POINT('',#246);
#249=CARTESIAN_POINT('',(-1.5E1,4.5E0,0.E0));
#250=CARTESIAN_POINT('',(-6.E0,4.5E0,0.E0));
#251=VERTEX_POINT('',#249);
#252=VERTEX_POINT('',#250);
#253=CARTESIAN_POINT('',(1.5E1,4.5E0,0.E0));
#254=CARTESIAN_POINT('',(1.5E1,4.5E0,-2.5E3));
#255=VERTEX_POINT('',#253);
#256=VERTEX_POINT('',#254);
#257=CARTESIAN_POINT('',(-1.3E1,2.5E0,-2.5E3));
#258=VERTEX_POINT('',#257);
#259=CARTESIAN_POINT('',(0.E0,-2.8E0,-6.063298011820E-13));
#260=CARTESIAN_POINT('',(0.E0,-2.8E0,-2.5E3));
#261=VERTEX_POINT('',#259);
#262=VERTEX_POINT('',#260);
#263=CARTESIAN_POINT('',(-3.E-1,-2.5E0,-3.031649005910E-13));
#264=VERTEX_POINT('',#263);
#265=CARTESIAN_POINT('',(1.3E1,2.5E0,0.E0));
#266=CARTESIAN_POINT('',(6.E0,2.5E0,0.E0));
#267=VERTEX_POINT('',#265);
#268=VERTEX_POINT('',#266);
#269=CARTESIAN_POINT('',(-1.3E1,2.5E0,0.E0));
#270=CARTESIAN_POINT('',(-1.3E1,-2.5E0,0.E0));
#271=VERTEX_POINT('',#269);
#272=VERTEX_POINT('',#270);
#273=CARTESIAN_POINT('',(-1.5E1,4.5E0,-2.5E3));
#274=CARTESIAN_POINT('',(-6.E0,4.5E0,-2.5E3));
#275=VERTEX_POINT('',#273);
#276=VERTEX_POINT('',#274);
#277=CARTESIAN_POINT('',(1.5E1,-4.5E0,0.E0));
#278=VERTEX_POINT('',#277);
#279=CARTESIAN_POINT('',(6.E0,4.5E0,0.E0));
#280=VERTEX_POINT('',#279);
#281=CARTESIAN_POINT('',(-1.5E1,-4.5E0,0.E0));
#282=VERTEX_POINT('',#281);
#283=CARTESIAN_POINT('',(1.3E1,-2.5E0,0.E0));
#284=VERTEX_POINT('',#283);
#285=CARTESIAN_POINT('',(-1.3E1,2.5E0,-2.5E3));
#286=DIRECTION('',(1.E0,0.E0,0.E0));
#287=DIRECTION('',(0.E0,1.E0,0.E0));
#288=AXIS2_PLACEMENT_3D('',#285,#286,#287);
#289=PLANE('',#288);
#291=ORIENTED_EDGE('',*,*,#290,.F.);
#293=ORIENTED_EDGE('',*,*,#292,.T.);
#295=ORIENTED_EDGE('',*,*,#294,.T.);
#297=ORIENTED_EDGE('',*,*,#296,.F.);
#298=EDGE_LOOP('',(#291,#293,#295,#297));
#299=FACE_OUTER_BOUND('',#298,.F.);
#300=ADVANCED_FACE('',(#299),#289,.T.);
#301=CARTESIAN_POINT('',(0.E0,0.E0,0.E0));
#302=DIRECTION('',(0.E0,0.E0,1.E0));
#303=DIRECTION('',(1.E0,0.E0,0.E0));
#304=AXIS2_PLACEMENT_3D('',#301,#302,#303);
#305=PLANE('',#304);
#307=ORIENTED_EDGE('',*,*,#306,.T.);
#309=ORIENTED_EDGE('',*,*,#308,.T.);
#311=ORIENTED_EDGE('',*,*,#310,.T.);
#313=ORIENTED_EDGE('',*,*,#312,.T.);
#314=ORIENTED_EDGE('',*,*,#290,.T.);
#316=ORIENTED_EDGE('',*,*,#315,.T.);
#318=ORIENTED_EDGE('',*,*,#317,.T.);
#320=ORIENTED_EDGE('',*,*,#319,.T.);
#322=ORIENTED_EDGE('',*,*,#321,.T.);
#324=ORIENTED_EDGE('',*,*,#323,.T.);
#326=ORIENTED_EDGE('',*,*,#325,.T.);
#328=ORIENTED_EDGE('',*,*,#327,.T.);
#330=ORIENTED_EDGE('',*,*,#329,.T.);
#332=ORIENTED_EDGE('',*,*,#331,.T.);
#334=ORIENTED_EDGE('',*,*,#333,.T.);
#335=EDGE_LOOP('',(#307,#309,#311,#313,#314,#316,#318,#320,#322,#324,#326,#328,
#330,#332,#334));
#336=FACE_OUTER_BOUND('',#335,.F.);
#337=ADVANCED_FACE('',(#336),#305,.T.);
#338=CARTESIAN_POINT('',(-1.5E1,4.5E0,-2.5E3));
#339=DIRECTION('',(-1.E0,0.E0,0.E0));
#340=DIRECTION('',(0.E0,0.E0,1.E0));
#341=AXIS2_PLACEMENT_3D('',#338,#339,#340);
#342=PLANE('',#341);
#343=ORIENTED_EDGE('',*,*,#306,.F.);
#345=ORIENTED_EDGE('',*,*,#344,.T.);
#347=ORIENTED_EDGE('',*,*,#346,.T.);
#349=ORIENTED_EDGE('',*,*,#348,.F.);
#350=EDGE_LOOP('',(#343,#345,#347,#349));
#351=FACE_OUTER_BOUND('',#350,.F.);
#352=ADVANCED_FACE('',(#351),#342,.T.);
#353=CARTESIAN_POINT('',(-1.5E1,-4.5E0,-2.5E3));
#354=DIRECTION('',(0.E0,-1.E0,0.E0));
#355=DIRECTION('',(1.E0,0.E0,0.E0));
#356=AXIS2_PLACEMENT_3D('',#353,#354,#355);
#357=PLANE('',#356);
#358=ORIENTED_EDGE('',*,*,#333,.F.);
#360=ORIENTED_EDGE('',*,*,#359,.T.);
#362=ORIENTED_EDGE('',*,*,#361,.T.);
#363=ORIENTED_EDGE('',*,*,#344,.F.);
#364=EDGE_LOOP('',(#358,#360,#362,#363));
#365=FACE_OUTER_BOUND('',#364,.F.);
#366=ADVANCED_FACE('',(#365),#357,.T.);
#367=CARTESIAN_POINT('',(1.5E1,4.5E0,-2.5E3));
#368=DIRECTION('',(1.E0,0.E0,0.E0));
#369=DIRECTION('',(0.E0,1.E0,0.E0));
#370=AXIS2_PLACEMENT_3D('',#367,#368,#369);
#371=PLANE('',#370);
#372=ORIENTED_EDGE('',*,*,#331,.F.);
#374=ORIENTED_EDGE('',*,*,#373,.T.);
#376=ORIENTED_EDGE('',*,*,#375,.T.);
#377=ORIENTED_EDGE('',*,*,#359,.F.);
#378=EDGE_LOOP('',(#372,#374,#376,#377));
#379=FACE_OUTER_BOUND('',#378,.F.);
#380=ADVANCED_FACE('',(#379),#371,.T.);
#381=CARTESIAN_POINT('',(6.E0,4.5E0,-2.5E3));
#382=DIRECTION('',(0.E0,1.E0,0.E0));
#383=DIRECTION('',(-1.E0,0.E0,0.E0));
#384=AXIS2_PLACEMENT_3D('',#381,#382,#383);
#385=PLANE('',#384);
#386=ORIENTED_EDGE('',*,*,#329,.F.);
#388=ORIENTED_EDGE('',*,*,#387,.T.);
#390=ORIENTED_EDGE('',*,*,#389,.T.);
#391=ORIENTED_EDGE('',*,*,#373,.F.);
#392=EDGE_LOOP('',(#386,#388,#390,#391));
#393=FACE_OUTER_BOUND('',#392,.F.);
#394=ADVANCED_FACE('',(#393),#385,.T.);
#395=CARTESIAN_POINT('',(6.E0,4.5E0,-2.5E3));
#396=DIRECTION('',(-1.E0,0.E0,0.E0));
#397=DIRECTION('',(0.E0,-1.E0,0.E0));
#398=AXIS2_PLACEMENT_3D('',#395,#396,#397);
#399=PLANE('',#398);
#400=ORIENTED_EDGE('',*,*,#327,.F.);
#402=ORIENTED_EDGE('',*,*,#401,.T.);
#404=ORIENTED_EDGE('',*,*,#403,.T.);
#405=ORIENTED_EDGE('',*,*,#387,.F.);
#406=EDGE_LOOP('',(#400,#402,#404,#405));
#407=FACE_OUTER_BOUND('',#406,.F.);
#408=ADVANCED_FACE('',(#407),#399,.T.);
#409=CARTESIAN_POINT('',(6.E0,2.5E0,-2.5E3));
#410=DIRECTION('',(0.E0,-1.E0,0.E0));
#411=DIRECTION('',(1.E0,0.E0,0.E0));
#412=AXIS2_PLACEMENT_3D('',#409,#410,#411);
#413=PLANE('',#412);
#414=ORIENTED_EDGE('',*,*,#325,.F.);
#416=ORIENTED_EDGE('',*,*,#415,.T.);
#418=ORIENTED_EDGE('',*,*,#417,.T.);
#419=ORIENTED_EDGE('',*,*,#401,.F.);
#420=EDGE_LOOP('',(#414,#416,#418,#419));
#421=FACE_OUTER_BOUND('',#420,.F.);
#422=ADVANCED_FACE('',(#421),#413,.T.);
#423=CARTESIAN_POINT('',(1.3E1,2.5E0,-2.5E3));
#424=DIRECTION('',(-1.E0,0.E0,0.E0));
#425=DIRECTION('',(0.E0,-1.E0,0.E0));
#426=AXIS2_PLACEMENT_3D('',#423,#424,#425);
#427=PLANE('',#426);
#428=ORIENTED_EDGE('',*,*,#323,.F.);
#430=ORIENTED_EDGE('',*,*,#429,.T.);
#432=ORIENTED_EDGE('',*,*,#431,.T.);
#433=ORIENTED_EDGE('',*,*,#415,.F.);
#434=EDGE_LOOP('',(#428,#430,#432,#433));
#435=FACE_OUTER_BOUND('',#434,.F.);
#436=ADVANCED_FACE('',(#435),#427,.T.);
#437=CARTESIAN_POINT('',(3.E-1,-2.5E0,-2.5E3));
#438=DIRECTION('',(0.E0,1.E0,0.E0));
#439=DIRECTION('',(0.E0,0.E0,1.E0));
#440=AXIS2_PLACEMENT_3D('',#437,#438,#439);
#441=PLANE('',#440);
#442=ORIENTED_EDGE('',*,*,#321,.F.);
#444=ORIENTED_EDGE('',*,*,#443,.T.);
#446=ORIENTED_EDGE('',*,*,#445,.T.);
#447=ORIENTED_EDGE('',*,*,#429,.F.);
#448=EDGE_LOOP('',(#442,#444,#446,#447));
#449=FACE_OUTER_BOUND('',#448,.F.);
#450=ADVANCED_FACE('',(#449),#441,.T.);
#451=CARTESIAN_POINT('',(0.E0,-2.8E0,-2.5E3));
#452=DIRECTION('',(-7.071067811865E-1,7.071067811865E-1,0.E0));
#453=DIRECTION('',(-7.071067811865E-1,-7.071067811865E-1,0.E0));
#454=AXIS2_PLACEMENT_3D('',#451,#452,#453);
#455=PLANE('',#454);
#456=ORIENTED_EDGE('',*,*,#319,.F.);
#458=ORIENTED_EDGE('',*,*,#457,.T.);
#460=ORIENTED_EDGE('',*,*,#459,.T.);
#461=ORIENTED_EDGE('',*,*,#443,.F.);
#462=EDGE_LOOP('',(#456,#458,#460,#461));
#463=FACE_OUTER_BOUND('',#462,.F.);
#464=ADVANCED_FACE('',(#463),#455,.T.);
#465=CARTESIAN_POINT('',(-3.E-1,-2.5E0,-2.5E3));
#466=DIRECTION('',(7.071067811865E-1,7.071067811865E-1,0.E0));
#467=DIRECTION('',(-7.071067811865E-1,7.071067811865E-1,0.E0));
#468=AXIS2_PLACEMENT_3D('',#465,#466,#467);
#469=PLANE('',#468);
#470=ORIENTED_EDGE('',*,*,#317,.F.);
#472=ORIENTED_EDGE('',*,*,#471,.T.);
#474=ORIENTED_EDGE('',*,*,#473,.T.);
#475=ORIENTED_EDGE('',*,*,#457,.F.);
#476=EDGE_LOOP('',(#470,#472,#474,#475));
#477=FACE_OUTER_BOUND('',#476,.F.);
#478=ADVANCED_FACE('',(#477),#469,.T.);
#479=CARTESIAN_POINT('',(-1.3E1,-2.5E0,-2.5E3));
#480=DIRECTION('',(0.E0,1.E0,0.E0));
#481=DIRECTION('',(0.E0,0.E0,1.E0));
#482=AXIS2_PLACEMENT_3D('',#479,#480,#481);
#483=PLANE('',#482);
#484=ORIENTED_EDGE('',*,*,#315,.F.);
#485=ORIENTED_EDGE('',*,*,#296,.T.);
#487=ORIENTED_EDGE('',*,*,#486,.T.);
#488=ORIENTED_EDGE('',*,*,#471,.F.);
#489=EDGE_LOOP('',(#484,#485,#487,#488));
#490=FACE_OUTER_BOUND('',#489,.F.);
#491=ADVANCED_FACE('',(#490),#483,.T.);
#492=CARTESIAN_POINT('',(0.E0,0.E0,-2.5E3));
#493=DIRECTION('',(0.E0,0.E0,1.E0));
#494=DIRECTION('',(1.E0,0.E0,0.E0));
#495=AXIS2_PLACEMENT_3D('',#492,#493,#494);
#496=PLANE('',#495);
#497=ORIENTED_EDGE('',*,*,#346,.F.);
#498=ORIENTED_EDGE('',*,*,#361,.F.);
#499=ORIENTED_EDGE('',*,*,#375,.F.);
#500=ORIENTED_EDGE('',*,*,#389,.F.);
#501=ORIENTED_EDGE('',*,*,#403,.F.);
#502=ORIENTED_EDGE('',*,*,#417,.F.);
#503=ORIENTED_EDGE('',*,*,#431,.F.);
#504=ORIENTED_EDGE('',*,*,#445,.F.);
#505=ORIENTED_EDGE('',*,*,#459,.F.);
#506=ORIENTED_EDGE('',*,*,#473,.F.);
#507=ORIENTED_EDGE('',*,*,#486,.F.);
#508=ORIENTED_EDGE('',*,*,#294,.F.);
#510=ORIENTED_EDGE('',*,*,#509,.F.);
#512=ORIENTED_EDGE('',*,*,#511,.F.);
#514=ORIENTED_EDGE('',*,*,#513,.F.);
#515=EDGE_LOOP('',(#497,#498,#499,#500,#501,#502,#503,#504,#505,#506,#507,#508,
#510,#512,#514));
#516=FACE_OUTER_BOUND('',#515,.F.);
#517=ADVANCED_FACE('',(#516),#496,.F.);
#518=CARTESIAN_POINT('',(-1.3E1,2.5E0,-2.5E3));
#519=DIRECTION('',(0.E0,-1.E0,0.E0));
#520=DIRECTION('',(0.E0,0.E0,-1.E0));
#521=AXIS2_PLACEMENT_3D('',#518,#519,#520);
#522=PLANE('',#521);
#523=ORIENTED_EDGE('',*,*,#312,.F.);
#525=ORIENTED_EDGE('',*,*,#524,.T.);
#526=ORIENTED_EDGE('',*,*,#509,.T.);
#527=ORIENTED_EDGE('',*,*,#292,.F.);
#528=EDGE_LOOP('',(#523,#525,#526,#527));
#529=FACE_OUTER_BOUND('',#528,.F.);
#530=ADVANCED_FACE('',(#529),#522,.T.);
#531=CARTESIAN_POINT('',(-6.E0,4.5E0,-2.5E3));
#532=DIRECTION('',(1.E0,0.E0,0.E0));
#533=DIRECTION('',(0.E0,0.E0,-1.E0));
#534=AXIS2_PLACEMENT_3D('',#531,#532,#533);
#535=PLANE('',#534);
#536=ORIENTED_EDGE('',*,*,#310,.F.);
#538=ORIENTED_EDGE('',*,*,#537,.T.);
#539=ORIENTED_EDGE('',*,*,#511,.T.);
#540=ORIENTED_EDGE('',*,*,#524,.F.);
#541=EDGE_LOOP('',(#536,#538,#539,#540));
#542=FACE_OUTER_BOUND('',#541,.F.);
#543=ADVANCED_FACE('',(#542),#535,.T.);
#544=CARTESIAN_POINT('',(-1.5E1,4.5E0,-2.5E3));
#545=DIRECTION('',(0.E0,1.E0,0.E0));
#546=DIRECTION('',(0.E0,0.E0,1.E0));
#547=AXIS2_PLACEMENT_3D('',#544,#545,#546);
#548=PLANE('',#547);
#549=ORIENTED_EDGE('',*,*,#308,.F.);
#550=ORIENTED_EDGE('',*,*,#348,.T.);
#551=ORIENTED_EDGE('',*,*,#513,.T.);
#552=ORIENTED_EDGE('',*,*,#537,.F.);
#553=EDGE_LOOP('',(#549,#550,#551,#552));
#554=FACE_OUTER_BOUND('',#553,.F.);
#555=ADVANCED_FACE('',(#554),#548,.T.);
#556=CLOSED_SHELL('',(#300,#337,#352,#366,#380,#394,#408,#422,#436,#450,#464,
#478,#491,#517,#530,#543,#555));
#557=MANIFOLD_SOLID_BREP('',#556);
#558=PRESENTATION_LAYER_ASSIGNMENT('NONE','',(#557));
#560=DIMENSIONAL_EXPONENTS(0.E0,0.E0,0.E0,0.E0,0.E0,0.E0,0.E0);
#562=PLANE_ANGLE_MEASURE_WITH_UNIT(PLANE_ANGLE_MEASURE(1.745329251994E-2),#561);
#563=(CONVERSION_BASED_UNIT('DEGREE',#562)NAMED_UNIT(*)PLANE_ANGLE_UNIT());
#565=UNCERTAINTY_MEASURE_WITH_UNIT(LENGTH_MEASURE(2.500096184454E-1),#559,
'closure',
'Maximum model space distance between geometric entities at asserted connectivities');
#566=(GEOMETRIC_REPRESENTATION_CONTEXT(3)GLOBAL_UNCERTAINTY_ASSIGNED_CONTEXT((
#565))GLOBAL_UNIT_ASSIGNED_CONTEXT((#559,#563,#564))REPRESENTATION_CONTEXT
('ID1','3'));
#568=APPLICATION_CONTEXT(
'CONFIGURATION CONTROLLED 3D DESIGNS OF MECHANICAL PARTS AND ASSEMBLIES');
#569=APPLICATION_PROTOCOL_DEFINITION('international standard',
'config_control_design',1994,#568);
#570=DESIGN_CONTEXT('',#568,'design');
#571=MECHANICAL_CONTEXT('',#568,'mechanical');
#572=PRODUCT('DBCAD3170_PSE4-ALU-PROFIL_3009','DBCAD3170_PSE4-ALU-PROFIL_3009',
'NOT SPECIFIED',(#571));
#573=PRODUCT_DEFINITION_FORMATION_WITH_SPECIFIED_SOURCE('1','LAST_VERSION',#572,
.MADE.);
#577=PRODUCT_CATEGORY('part','');
#578=PRODUCT_RELATED_PRODUCT_CATEGORY('detail','',(#572));
#579=PRODUCT_CATEGORY_RELATIONSHIP('','',#577,#578);
#580=SECURITY_CLASSIFICATION_LEVEL('unclassified');
#581=SECURITY_CLASSIFICATION('','',#580);
#582=CC_DESIGN_SECURITY_CLASSIFICATION(#581,(#573));
#583=APPROVAL_STATUS('approved');
#584=APPROVAL(#583,'');
#585=CC_DESIGN_APPROVAL(#584,(#581,#573,#574));
#586=CALENDAR_DATE(117,16,8);
#587=COORDINATED_UNIVERSAL_TIME_OFFSET(2,0,.AHEAD.);
#588=LOCAL_TIME(10,35,3.8E1,#587);
#589=DATE_AND_TIME(#586,#588);
#590=APPROVAL_DATE_TIME(#589,#584);
#591=DATE_TIME_ROLE('creation_date');
#592=CC_DESIGN_DATE_AND_TIME_ASSIGNMENT(#589,#591,(#574));
#593=DATE_TIME_ROLE('classification_date');
#594=CC_DESIGN_DATE_AND_TIME_ASSIGNMENT(#589,#593,(#581));
#595=PERSON('UNSPECIFIED','UNSPECIFIED',$,$,$,$);
#596=ORGANIZATION('UNSPECIFIED','UNSPECIFIED','UNSPECIFIED');
#597=PERSON_AND_ORGANIZATION(#595,#596);
#598=APPROVAL_ROLE('approver');
#599=APPROVAL_PERSON_ORGANIZATION(#597,#584,#598);
#600=PERSON_AND_ORGANIZATION_ROLE('creator');
#601=CC_DESIGN_PERSON_AND_ORGANIZATION_ASSIGNMENT(#597,#600,(#573,#574));
#602=PERSON_AND_ORGANIZATION_ROLE('design_supplier');
#603=CC_DESIGN_PERSON_AND_ORGANIZATION_ASSIGNMENT(#597,#602,(#573));
#604=PERSON_AND_ORGANIZATION_ROLE('classification_officer');
#605=CC_DESIGN_PERSON_AND_ORGANIZATION_ASSIGNMENT(#597,#604,(#581));
#606=PERSON_AND_ORGANIZATION_ROLE('design_owner');
#607=CC_DESIGN_PERSON_AND_ORGANIZATION_ASSIGNMENT(#597,#606,(#572));
#1=DRAUGHTING_PRE_DEFINED_COLOUR('black');
#2=COLOUR_RGB('',0.E0,0.E0,6.6E-1);
#3=DRAUGHTING_PRE_DEFINED_COLOUR('blue');
#4=COLOUR_RGB('',0.E0,3.3E-1,0.E0);
#5=COLOUR_RGB('',0.E0,4.5E-1,0.E0);
#6=COLOUR_RGB('',0.E0,6.E-1,0.E0);
#7=DRAUGHTING_PRE_DEFINED_COLOUR('green');
#8=COLOUR_RGB('',6.7E-2,6.7E-2,6.7E-2);
#9=COLOUR_RGB('',1.01E-1,1.98E-1,9.52E-1);
#10=COLOUR_RGB('',1.06E-1,8.16E-1,2.08E-1);
#11=COLOUR_RGB('',2.E-1,4.E-1,1.E0);
#12=COLOUR_RGB('',2.E-1,8.E-1,1.E0);
#13=COLOUR_RGB('',2.5E-1,2.5E-1,2.5E-1);
#14=COLOUR_RGB('',3.14E-1,7.4E-2,0.E0);
#15=COLOUR_RGB('',3.27451E-1,8.82353E-1,6.32941E-1);
#16=COLOUR_RGB('',4.63E-1,4.43E-1,4.94E-1);
#17=COLOUR_RGB('',5.E-1,5.E-1,5.E-1);
#18=COLOUR_RGB('',5.22E-1,4.94E-1,4.86E-1);
#19=COLOUR_RGB('',6.08E-1,2.3E-2,7.73E-1);
#20=COLOUR_RGB('',6.47E-1,6.47E-1,6.47E-1);
#21=COLOUR_RGB('',6.952E-1,7.426E-1,7.9E-1);
#22=COLOUR_RGB('',7.57E-1,0.E0,0.E0);
#23=COLOUR_RGB('',8.E-1,4.E-1,0.E0);
#24=COLOUR_RGB('',8.E-1,8.E-1,8.E-1);
#25=COLOUR_RGB('',8.E-1,1.E0,1.E0);
#26=COLOUR_RGB('',8.9E-1,9.1E-1,7.E-1);
#27=COLOUR_RGB('',9.37E-1,8.51E-1,9.4E-2);
#28=DRAUGHTING_PRE_DEFINED_COLOUR('red');
#29=COLOUR_RGB('',1.E0,0.E0,2.E-1);
#30=COLOUR_RGB('',1.E0,0.E0,4.E-1);
#31=COLOUR_RGB('',1.E0,0.E0,6.E-1);
#32=COLOUR_RGB('',1.E0,0.E0,8.E-1);
#33=COLOUR_RGB('',1.E0,4.E-1,0.E0);
#34=COLOUR_RGB('',1.E0,4.57E-1,0.E0);
#35=COLOUR_RGB('',1.E0,6.E-1,0.E0);
#36=COLOUR_RGB('',1.E0,7.15E-1,4.11E-1);
#37=COLOUR_RGB('',1.E0,8.E-1,0.E0);
#38=COLOUR_RGB('',1.E0,8.E-1,4.E-1);
#39=DRAUGHTING_PRE_DEFINED_COLOUR('yellow');
#40=COLOUR_RGB('',1.E0,1.E0,2.E-1);
#41=COLOUR_RGB('',1.E0,1.E0,4.E-1);
#42=COLOUR_RGB('',1.E0,1.E0,6.E-1);
#43=COLOUR_RGB('',1.E0,1.E0,8.E-1);
#44=DRAUGHTING_PRE_DEFINED_COLOUR('white');
#290=EDGE_CURVE('',#271,#272,#48,.T.);
#292=EDGE_CURVE('',#271,#258,#208,.T.);
#294=EDGE_CURVE('',#258,#227,#188,.T.);
#296=EDGE_CURVE('',#272,#227,#52,.T.);
#306=EDGE_CURVE('',#282,#251,#56,.T.);
#308=EDGE_CURVE('',#251,#252,#220,.T.);
#310=EDGE_CURVE('',#252,#231,#212,.T.);
#312=EDGE_CURVE('',#231,#271,#204,.T.);
#315=EDGE_CURVE('',#272,#264,#136,.T.);
#317=EDGE_CURVE('',#264,#261,#128,.T.);
#319=EDGE_CURVE('',#261,#243,#120,.T.);
#321=EDGE_CURVE('',#243,#284,#112,.T.);
#323=EDGE_CURVE('',#284,#267,#104,.T.);
#325=EDGE_CURVE('',#267,#268,#96,.T.);
#327=EDGE_CURVE('',#268,#280,#88,.T.);
#329=EDGE_CURVE('',#280,#255,#80,.T.);
#331=EDGE_CURVE('',#255,#278,#72,.T.);
#333=EDGE_CURVE('',#278,#282,#64,.T.);
#344=EDGE_CURVE('',#282,#248,#68,.T.);
#346=EDGE_CURVE('',#248,#275,#144,.T.);
#348=EDGE_CURVE('',#251,#275,#60,.T.);
#359=EDGE_CURVE('',#278,#247,#76,.T.);
#361=EDGE_CURVE('',#247,#248,#148,.T.);
#373=EDGE_CURVE('',#255,#256,#84,.T.);
#375=EDGE_CURVE('',#256,#247,#152,.T.);
#387=EDGE_CURVE('',#280,#240,#92,.T.);
#389=EDGE_CURVE('',#240,#256,#156,.T.);
#401=EDGE_CURVE('',#268,#239,#100,.T.);
#403=EDGE_CURVE('',#239,#240,#160,.T.);
#415=EDGE_CURVE('',#267,#236,#108,.T.);
#417=EDGE_CURVE('',#236,#239,#164,.T.);
#429=EDGE_CURVE('',#284,#235,#116,.T.);
#431=EDGE_CURVE('',#235,#236,#168,.T.);
#443=EDGE_CURVE('',#243,#244,#124,.T.);
#445=EDGE_CURVE('',#244,#235,#172,.T.);
#457=EDGE_CURVE('',#261,#262,#132,.T.);
#459=EDGE_CURVE('',#262,#244,#176,.T.);
#471=EDGE_CURVE('',#264,#228,#140,.T.);
#473=EDGE_CURVE('',#228,#262,#180,.T.);
#486=EDGE_CURVE('',#227,#228,#184,.T.);
#509=EDGE_CURVE('',#232,#258,#192,.T.);
#511=EDGE_CURVE('',#276,#232,#196,.T.);
#513=EDGE_CURVE('',#275,#276,#200,.T.);
#524=EDGE_CURVE('',#231,#232,#216,.T.);
#537=EDGE_CURVE('',#252,#276,#224,.T.);
#559=(LENGTH_UNIT()NAMED_UNIT(*)SI_UNIT(.MILLI.,.METRE.));
#561=(NAMED_UNIT(*)PLANE_ANGLE_UNIT()SI_UNIT($,.RADIAN.));
#564=(NAMED_UNIT(*)SI_UNIT($,.STERADIAN.)SOLID_ANGLE_UNIT());
#567=ADVANCED_BREP_SHAPE_REPRESENTATION('',(#557),#566);
#574=PRODUCT_DEFINITION('design','',#573,#570);
#575=PRODUCT_DEFINITION_SHAPE('','SHAPE FOR DBCAD3170_PSE4-ALU-PROFIL_3009.',
#574);
#576=SHAPE_DEFINITION_REPRESENTATION(#575,#567);
ENDSEC;
END-ISO-10303-21;
