ISO-10303-21;
HEADER;
FILE_DESCRIPTION((''),'2;1');
FILE_NAME('CAD-8484_SW0001','2022-07-01T07:08:21',('creinig-se'),(''),
'CREO PARAMETRIC BY PTC INC, 2019292','CREO PARAMETRIC BY PTC INC, 2019292','');
FILE_SCHEMA(('CONFIG_CONTROL_DESIGN','SHAPE_APPEARANCE_LAYERS_GROUPS'));
ENDSEC;
DATA;
#39=CARTESIAN_POINT('',(0.E0,0.E0,-9.5E-1));
#40=DIRECTION('',(0.E0,0.E0,-1.E0));
#41=DIRECTION('',(1.E0,0.E0,0.E0));
#42=AXIS2_PLACEMENT_3D('',#39,#40,#41);
#44=CARTESIAN_POINT('',(0.E0,0.E0,-9.5E-1));
#45=DIRECTION('',(0.E0,0.E0,-1.E0));
#46=DIRECTION('',(-1.E0,0.E0,0.E0));
#47=AXIS2_PLACEMENT_3D('',#44,#45,#46);
#49=CARTESIAN_POINT('',(0.E0,0.E0,0.E0));
#50=DIRECTION('',(0.E0,0.E0,1.E0));
#51=DIRECTION('',(-1.E0,0.E0,0.E0));
#52=AXIS2_PLACEMENT_3D('',#49,#50,#51);
#54=DIRECTION('',(0.E0,0.E0,-1.E0));
#55=VECTOR('',#54,9.5E-1);
#56=CARTESIAN_POINT('',(-9.8E0,0.E0,0.E0));
#57=LINE('',#56,#55);
#58=CARTESIAN_POINT('',(0.E0,0.E0,-1.421085471520E-14));
#59=DIRECTION('',(0.E0,0.E0,-1.E0));
#60=DIRECTION('',(1.E0,0.E0,0.E0));
#61=AXIS2_PLACEMENT_3D('',#58,#59,#60);
#63=CARTESIAN_POINT('',(0.E0,0.E0,-1.421085471520E-14));
#64=DIRECTION('',(0.E0,0.E0,-1.E0));
#65=DIRECTION('',(-1.E0,0.E0,0.E0));
#66=AXIS2_PLACEMENT_3D('',#63,#64,#65);
#68=DIRECTION('',(0.E0,0.E0,1.E0));
#69=VECTOR('',#68,2.2E0);
#70=CARTESIAN_POINT('',(1.03E1,0.E0,0.E0));
#71=LINE('',#70,#69);
#72=DIRECTION('',(0.E0,0.E0,1.E0));
#73=VECTOR('',#72,2.2E0);
#74=CARTESIAN_POINT('',(-1.03E1,0.E0,0.E0));
#75=LINE('',#74,#73);
#76=CARTESIAN_POINT('',(0.E0,0.E0,2.2E0));
#77=DIRECTION('',(0.E0,0.E0,1.E0));
#78=DIRECTION('',(1.E0,0.E0,0.E0));
#79=AXIS2_PLACEMENT_3D('',#76,#77,#78);
#81=CARTESIAN_POINT('',(0.E0,0.E0,2.2E0));
#82=DIRECTION('',(0.E0,0.E0,1.E0));
#83=DIRECTION('',(-1.E0,0.E0,0.E0));
#84=AXIS2_PLACEMENT_3D('',#81,#82,#83);
#86=CARTESIAN_POINT('',(0.E0,0.E0,2.2E0));
#87=DIRECTION('',(0.E0,0.E0,-1.E0));
#88=DIRECTION('',(-1.E0,0.E0,0.E0));
#89=AXIS2_PLACEMENT_3D('',#86,#87,#88);
#91=CARTESIAN_POINT('',(0.E0,0.E0,2.2E0));
#92=DIRECTION('',(0.E0,0.E0,-1.E0));
#93=DIRECTION('',(1.E0,0.E0,0.E0));
#94=AXIS2_PLACEMENT_3D('',#91,#92,#93);
#96=DIRECTION('',(0.E0,0.E0,1.E0));
#97=VECTOR('',#96,1.9E0);
#98=CARTESIAN_POINT('',(-9.55E0,0.E0,2.2E0));
#99=LINE('',#98,#97);
#100=CARTESIAN_POINT('',(0.E0,0.E0,4.1E0));
#101=DIRECTION('',(0.E0,0.E0,1.E0));
#102=DIRECTION('',(1.E0,0.E0,0.E0));
#103=AXIS2_PLACEMENT_3D('',#100,#101,#102);
#105=CARTESIAN_POINT('',(0.E0,0.E0,4.1E0));
#106=DIRECTION('',(0.E0,0.E0,1.E0));
#107=DIRECTION('',(-1.E0,0.E0,0.E0));
#108=AXIS2_PLACEMENT_3D('',#105,#106,#107);
#110=CARTESIAN_POINT('',(0.E0,0.E0,4.1E0));
#111=DIRECTION('',(0.E0,0.E0,-1.E0));
#112=DIRECTION('',(-1.E0,0.E0,0.E0));
#113=AXIS2_PLACEMENT_3D('',#110,#111,#112);
#115=CARTESIAN_POINT('',(0.E0,0.E0,4.1E0));
#116=DIRECTION('',(0.E0,0.E0,-1.E0));
#117=DIRECTION('',(1.E0,0.E0,0.E0));
#118=AXIS2_PLACEMENT_3D('',#115,#116,#117);
#120=DIRECTION('',(0.E0,0.E0,1.E0));
#121=VECTOR('',#120,1.9E0);
#122=CARTESIAN_POINT('',(9.55E0,0.E0,2.2E0));
#123=LINE('',#122,#121);
#124=DIRECTION('',(0.E0,0.E0,1.E0));
#125=VECTOR('',#124,1.E0);
#126=CARTESIAN_POINT('',(-9.45E0,0.E0,4.1E0));
#127=LINE('',#126,#125);
#128=CARTESIAN_POINT('',(0.E0,0.E0,5.1E0));
#129=DIRECTION('',(0.E0,0.E0,1.E0));
#130=DIRECTION('',(-1.E0,0.E0,0.E0));
#131=AXIS2_PLACEMENT_3D('',#128,#129,#130);
#133=CARTESIAN_POINT('',(0.E0,0.E0,5.1E0));
#134=DIRECTION('',(0.E0,0.E0,1.E0));
#135=DIRECTION('',(1.E0,0.E0,0.E0));
#136=AXIS2_PLACEMENT_3D('',#133,#134,#135);
#138=CARTESIAN_POINT('',(0.E0,0.E0,5.1E0));
#139=DIRECTION('',(0.E0,0.E0,-1.E0));
#140=DIRECTION('',(-1.E0,0.E0,0.E0));
#141=AXIS2_PLACEMENT_3D('',#138,#139,#140);
#143=CARTESIAN_POINT('',(0.E0,0.E0,5.1E0));
#144=DIRECTION('',(0.E0,0.E0,-1.E0));
#145=DIRECTION('',(1.E0,0.E0,0.E0));
#146=AXIS2_PLACEMENT_3D('',#143,#144,#145);
#148=DIRECTION('',(0.E0,0.E0,1.E0));
#149=VECTOR('',#148,1.E0);
#150=CARTESIAN_POINT('',(9.45E0,0.E0,4.1E0));
#151=LINE('',#150,#149);
#152=DIRECTION('',(0.E0,0.E0,-1.E0));
#153=VECTOR('',#152,7.5E-2);
#154=CARTESIAN_POINT('',(-8.5E0,0.E0,5.1E0));
#155=LINE('',#154,#153);
#156=DIRECTION('',(0.E0,0.E0,-1.E0));
#157=VECTOR('',#156,7.5E-2);
#158=CARTESIAN_POINT('',(8.5E0,0.E0,5.1E0));
#159=LINE('',#158,#157);
#160=CARTESIAN_POINT('',(0.E0,0.E0,5.025E0));
#161=DIRECTION('',(0.E0,0.E0,1.E0));
#162=DIRECTION('',(1.E0,0.E0,0.E0));
#163=AXIS2_PLACEMENT_3D('',#160,#161,#162);
#165=CARTESIAN_POINT('',(0.E0,0.E0,5.025E0));
#166=DIRECTION('',(0.E0,0.E0,1.E0));
#167=DIRECTION('',(-1.E0,0.E0,0.E0));
#168=AXIS2_PLACEMENT_3D('',#165,#166,#167);
#170=CARTESIAN_POINT('',(0.E0,0.E0,0.E0));
#171=DIRECTION('',(0.E0,0.E0,1.E0));
#172=DIRECTION('',(1.E0,0.E0,0.E0));
#173=AXIS2_PLACEMENT_3D('',#170,#171,#172);
#175=DIRECTION('',(0.E0,0.E0,-1.E0));
#176=VECTOR('',#175,9.5E-1);
#177=CARTESIAN_POINT('',(9.8E0,0.E0,0.E0));
#178=LINE('',#177,#176);
#179=CARTESIAN_POINT('',(-9.8E0,0.E0,-9.5E-1));
#180=CARTESIAN_POINT('',(9.8E0,0.E0,-9.5E-1));
#181=VERTEX_POINT('',#179);
#182=VERTEX_POINT('',#180);
#183=CARTESIAN_POINT('',(9.45E0,0.E0,4.1E0));
#184=CARTESIAN_POINT('',(-9.45E0,0.E0,4.1E0));
#185=VERTEX_POINT('',#183);
#186=VERTEX_POINT('',#184);
#187=CARTESIAN_POINT('',(-1.03E1,0.E0,2.2E0));
#188=CARTESIAN_POINT('',(1.03E1,0.E0,2.2E0));
#189=VERTEX_POINT('',#187);
#190=VERTEX_POINT('',#188);
#191=CARTESIAN_POINT('',(1.03E1,0.E0,0.E0));
#192=VERTEX_POINT('',#191);
#193=CARTESIAN_POINT('',(-9.45E0,0.E0,5.1E0));
#194=CARTESIAN_POINT('',(9.45E0,0.E0,5.1E0));
#195=VERTEX_POINT('',#193);
#196=VERTEX_POINT('',#194);
#197=CARTESIAN_POINT('',(9.55E0,0.E0,4.1E0));
#198=CARTESIAN_POINT('',(-9.55E0,0.E0,4.1E0));
#199=VERTEX_POINT('',#197);
#200=VERTEX_POINT('',#198);
#201=CARTESIAN_POINT('',(8.5E0,0.E0,5.025E0));
#202=CARTESIAN_POINT('',(-8.5E0,0.E0,5.025E0));
#203=VERTEX_POINT('',#201);
#204=VERTEX_POINT('',#202);
#205=CARTESIAN_POINT('',(9.55E0,0.E0,2.2E0));
#206=VERTEX_POINT('',#205);
#207=CARTESIAN_POINT('',(-9.55E0,0.E0,2.2E0));
#208=VERTEX_POINT('',#207);
#209=CARTESIAN_POINT('',(-8.5E0,0.E0,5.1E0));
#210=CARTESIAN_POINT('',(8.5E0,0.E0,5.1E0));
#211=VERTEX_POINT('',#209);
#212=VERTEX_POINT('',#210);
#213=CARTESIAN_POINT('',(-1.03E1,0.E0,0.E0));
#214=VERTEX_POINT('',#213);
#215=CARTESIAN_POINT('',(9.8E0,0.E0,0.E0));
#216=CARTESIAN_POINT('',(-9.8E0,0.E0,0.E0));
#217=VERTEX_POINT('',#215);
#218=VERTEX_POINT('',#216);
#219=CARTESIAN_POINT('',(0.E0,0.E0,-9.5E-1));
#220=DIRECTION('',(0.E0,0.E0,-1.E0));
#221=DIRECTION('',(-1.E0,0.E0,0.E0));
#222=AXIS2_PLACEMENT_3D('',#219,#220,#221);
#223=PLANE('',#222);
#225=ORIENTED_EDGE('',*,*,#224,.F.);
#227=ORIENTED_EDGE('',*,*,#226,.F.);
#228=EDGE_LOOP('',(#225,#227));
#229=FACE_OUTER_BOUND('',#228,.F.);
#230=ADVANCED_FACE('',(#229),#223,.T.);
#231=CARTESIAN_POINT('',(0.E0,0.E0,-9.5E-1));
#232=DIRECTION('',(0.E0,0.E0,1.E0));
#233=DIRECTION('',(1.E0,0.E0,0.E0));
#234=AXIS2_PLACEMENT_3D('',#231,#232,#233);
#235=CYLINDRICAL_SURFACE('',#234,9.8E0);
#237=ORIENTED_EDGE('',*,*,#236,.T.);
#239=ORIENTED_EDGE('',*,*,#238,.T.);
#240=ORIENTED_EDGE('',*,*,#224,.T.);
#242=ORIENTED_EDGE('',*,*,#241,.F.);
#243=EDGE_LOOP('',(#237,#239,#240,#242));
#244=FACE_OUTER_BOUND('',#243,.F.);
#245=ADVANCED_FACE('',(#244),#235,.T.);
#246=CARTESIAN_POINT('',(0.E0,0.E0,0.E0));
#247=DIRECTION('',(0.E0,0.E0,1.E0));
#248=DIRECTION('',(1.E0,0.E0,0.E0));
#249=AXIS2_PLACEMENT_3D('',#246,#247,#248);
#250=PLANE('',#249);
#252=ORIENTED_EDGE('',*,*,#251,.F.);
#254=ORIENTED_EDGE('',*,*,#253,.F.);
#255=EDGE_LOOP('',(#252,#254));
#256=FACE_OUTER_BOUND('',#255,.F.);
#258=ORIENTED_EDGE('',*,*,#257,.F.);
#259=ORIENTED_EDGE('',*,*,#236,.F.);
#260=EDGE_LOOP('',(#258,#259));
#261=FACE_BOUND('',#260,.F.);
#262=ADVANCED_FACE('',(#256,#261),#250,.F.);
#263=FILL_AREA_STYLE_COLOUR('',#5);
#264=FILL_AREA_STYLE('',(#263));
#265=SURFACE_STYLE_FILL_AREA(#264);
#266=SURFACE_SIDE_STYLE('',(#265));
#267=SURFACE_STYLE_USAGE(.BOTH.,#266);
#268=PRESENTATION_STYLE_ASSIGNMENT((#267));
#269=STYLED_ITEM('',(#268),#262);
#270=CARTESIAN_POINT('',(0.E0,0.E0,3.133279938489E1));
#271=DIRECTION('',(0.E0,0.E0,-1.E0));
#272=DIRECTION('',(-1.E0,0.E0,0.E0));
#273=AXIS2_PLACEMENT_3D('',#270,#271,#272);
#274=CYLINDRICAL_SURFACE('',#273,1.03E1);
#276=ORIENTED_EDGE('',*,*,#275,.F.);
#277=ORIENTED_EDGE('',*,*,#251,.T.);
#279=ORIENTED_EDGE('',*,*,#278,.T.);
#281=ORIENTED_EDGE('',*,*,#280,.T.);
#282=EDGE_LOOP('',(#276,#277,#279,#281));
#283=FACE_OUTER_BOUND('',#282,.F.);
#284=ADVANCED_FACE('',(#283),#274,.T.);
#285=FILL_AREA_STYLE_COLOUR('',#5);
#286=FILL_AREA_STYLE('',(#285));
#287=SURFACE_STYLE_FILL_AREA(#286);
#288=SURFACE_SIDE_STYLE('',(#287));
#289=SURFACE_STYLE_USAGE(.BOTH.,#288);
#290=PRESENTATION_STYLE_ASSIGNMENT((#289));
#291=STYLED_ITEM('',(#290),#284);
#292=CARTESIAN_POINT('',(0.E0,0.E0,3.133279938489E1));
#293=DIRECTION('',(0.E0,0.E0,-1.E0));
#294=DIRECTION('',(-1.E0,0.E0,0.E0));
#295=AXIS2_PLACEMENT_3D('',#292,#293,#294);
#296=CYLINDRICAL_SURFACE('',#295,1.03E1);
#298=ORIENTED_EDGE('',*,*,#297,.T.);
#299=ORIENTED_EDGE('',*,*,#278,.F.);
#300=ORIENTED_EDGE('',*,*,#253,.T.);
#301=ORIENTED_EDGE('',*,*,#275,.T.);
#302=EDGE_LOOP('',(#298,#299,#300,#301));
#303=FACE_OUTER_BOUND('',#302,.F.);
#304=ADVANCED_FACE('',(#303),#296,.T.);
#305=FILL_AREA_STYLE_COLOUR('',#5);
#306=FILL_AREA_STYLE('',(#305));
#307=SURFACE_STYLE_FILL_AREA(#306);
#308=SURFACE_SIDE_STYLE('',(#307));
#309=SURFACE_STYLE_USAGE(.BOTH.,#308);
#310=PRESENTATION_STYLE_ASSIGNMENT((#309));
#311=STYLED_ITEM('',(#310),#304);
#312=CARTESIAN_POINT('',(0.E0,0.E0,2.2E0));
#313=DIRECTION('',(0.E0,0.E0,1.E0));
#314=DIRECTION('',(1.E0,0.E0,0.E0));
#315=AXIS2_PLACEMENT_3D('',#312,#313,#314);
#316=PLANE('',#315);
#317=ORIENTED_EDGE('',*,*,#297,.F.);
#318=ORIENTED_EDGE('',*,*,#280,.F.);
#319=EDGE_LOOP('',(#317,#318));
#320=FACE_OUTER_BOUND('',#319,.F.);
#322=ORIENTED_EDGE('',*,*,#321,.F.);
#324=ORIENTED_EDGE('',*,*,#323,.F.);
#325=EDGE_LOOP('',(#322,#324));
#326=FACE_BOUND('',#325,.F.);
#327=ADVANCED_FACE('',(#320,#326),#316,.T.);
#328=FILL_AREA_STYLE_COLOUR('',#5);
#329=FILL_AREA_STYLE('',(#328));
#330=SURFACE_STYLE_FILL_AREA(#329);
#331=SURFACE_SIDE_STYLE('',(#330));
#332=SURFACE_STYLE_USAGE(.BOTH.,#331);
#333=PRESENTATION_STYLE_ASSIGNMENT((#332));
#334=STYLED_ITEM('',(#333),#327);
#335=CARTESIAN_POINT('',(0.E0,0.E0,4.1E0));
#336=DIRECTION('',(0.E0,0.E0,-1.E0));
#337=DIRECTION('',(-1.E0,0.E0,0.E0));
#338=AXIS2_PLACEMENT_3D('',#335,#336,#337);
#339=CYLINDRICAL_SURFACE('',#338,9.55E0);
#341=ORIENTED_EDGE('',*,*,#340,.T.);
#343=ORIENTED_EDGE('',*,*,#342,.F.);
#344=ORIENTED_EDGE('',*,*,#321,.T.);
#346=ORIENTED_EDGE('',*,*,#345,.T.);
#347=EDGE_LOOP('',(#341,#343,#344,#346));
#348=FACE_OUTER_BOUND('',#347,.F.);
#349=ADVANCED_FACE('',(#348),#339,.T.);
#350=FILL_AREA_STYLE_COLOUR('',#5);
#351=FILL_AREA_STYLE('',(#350));
#352=SURFACE_STYLE_FILL_AREA(#351);
#353=SURFACE_SIDE_STYLE('',(#352));
#354=SURFACE_STYLE_USAGE(.BOTH.,#353);
#355=PRESENTATION_STYLE_ASSIGNMENT((#354));
#356=STYLED_ITEM('',(#355),#349);
#357=CARTESIAN_POINT('',(0.E0,0.E0,4.1E0));
#358=DIRECTION('',(0.E0,0.E0,1.E0));
#359=DIRECTION('',(1.E0,0.E0,0.E0));
#360=AXIS2_PLACEMENT_3D('',#357,#358,#359);
#361=PLANE('',#360);
#362=ORIENTED_EDGE('',*,*,#340,.F.);
#364=ORIENTED_EDGE('',*,*,#363,.F.);
#365=EDGE_LOOP('',(#362,#364));
#366=FACE_OUTER_BOUND('',#365,.F.);
#368=ORIENTED_EDGE('',*,*,#367,.F.);
#370=ORIENTED_EDGE('',*,*,#369,.F.);
#371=EDGE_LOOP('',(#368,#370));
#372=FACE_BOUND('',#371,.F.);
#373=ADVANCED_FACE('',(#366,#372),#361,.T.);
#374=FILL_AREA_STYLE_COLOUR('',#5);
#375=FILL_AREA_STYLE('',(#374));
#376=SURFACE_STYLE_FILL_AREA(#375);
#377=SURFACE_SIDE_STYLE('',(#376));
#378=SURFACE_STYLE_USAGE(.BOTH.,#377);
#379=PRESENTATION_STYLE_ASSIGNMENT((#378));
#380=STYLED_ITEM('',(#379),#373);
#381=CARTESIAN_POINT('',(0.E0,0.E0,4.1E0));
#382=DIRECTION('',(0.E0,0.E0,-1.E0));
#383=DIRECTION('',(-1.E0,0.E0,0.E0));
#384=AXIS2_PLACEMENT_3D('',#381,#382,#383);
#385=CYLINDRICAL_SURFACE('',#384,9.55E0);
#386=ORIENTED_EDGE('',*,*,#345,.F.);
#387=ORIENTED_EDGE('',*,*,#323,.T.);
#388=ORIENTED_EDGE('',*,*,#342,.T.);
#389=ORIENTED_EDGE('',*,*,#363,.T.);
#390=EDGE_LOOP('',(#386,#387,#388,#389));
#391=FACE_OUTER_BOUND('',#390,.F.);
#392=ADVANCED_FACE('',(#391),#385,.T.);
#393=FILL_AREA_STYLE_COLOUR('',#5);
#394=FILL_AREA_STYLE('',(#393));
#395=SURFACE_STYLE_FILL_AREA(#394);
#396=SURFACE_SIDE_STYLE('',(#395));
#397=SURFACE_STYLE_USAGE(.BOTH.,#396);
#398=PRESENTATION_STYLE_ASSIGNMENT((#397));
#399=STYLED_ITEM('',(#398),#392);
#400=CARTESIAN_POINT('',(0.E0,0.E0,5.3E0));
#401=DIRECTION('',(0.E0,0.E0,-1.E0));
#402=DIRECTION('',(-1.E0,0.E0,0.E0));
#403=AXIS2_PLACEMENT_3D('',#400,#401,#402);
#404=CYLINDRICAL_SURFACE('',#403,9.45E0);
#406=ORIENTED_EDGE('',*,*,#405,.T.);
#408=ORIENTED_EDGE('',*,*,#407,.F.);
#409=ORIENTED_EDGE('',*,*,#367,.T.);
#411=ORIENTED_EDGE('',*,*,#410,.T.);
#412=EDGE_LOOP('',(#406,#408,#409,#411));
#413=FACE_OUTER_BOUND('',#412,.F.);
#414=ADVANCED_FACE('',(#413),#404,.T.);
#415=FILL_AREA_STYLE_COLOUR('',#5);
#416=FILL_AREA_STYLE('',(#415));
#417=SURFACE_STYLE_FILL_AREA(#416);
#418=SURFACE_SIDE_STYLE('',(#417));
#419=SURFACE_STYLE_USAGE(.BOTH.,#418);
#420=PRESENTATION_STYLE_ASSIGNMENT((#419));
#421=STYLED_ITEM('',(#420),#414);
#422=CARTESIAN_POINT('',(0.E0,0.E0,5.1E0));
#423=DIRECTION('',(0.E0,0.E0,1.E0));
#424=DIRECTION('',(1.E0,0.E0,0.E0));
#425=AXIS2_PLACEMENT_3D('',#422,#423,#424);
#426=PLANE('',#425);
#428=ORIENTED_EDGE('',*,*,#427,.F.);
#429=ORIENTED_EDGE('',*,*,#405,.F.);
#430=EDGE_LOOP('',(#428,#429));
#431=FACE_OUTER_BOUND('',#430,.F.);
#433=ORIENTED_EDGE('',*,*,#432,.F.);
#435=ORIENTED_EDGE('',*,*,#434,.F.);
#436=EDGE_LOOP('',(#433,#435));
#437=FACE_BOUND('',#436,.F.);
#438=ADVANCED_FACE('',(#431,#437),#426,.T.);
#439=FILL_AREA_STYLE_COLOUR('',#5);
#440=FILL_AREA_STYLE('',(#439));
#441=SURFACE_STYLE_FILL_AREA(#440);
#442=SURFACE_SIDE_STYLE('',(#441));
#443=SURFACE_STYLE_USAGE(.BOTH.,#442);
#444=PRESENTATION_STYLE_ASSIGNMENT((#443));
#445=STYLED_ITEM('',(#444),#438);
#446=CARTESIAN_POINT('',(0.E0,0.E0,5.3E0));
#447=DIRECTION('',(0.E0,0.E0,-1.E0));
#448=DIRECTION('',(-1.E0,0.E0,0.E0));
#449=AXIS2_PLACEMENT_3D('',#446,#447,#448);
#450=CYLINDRICAL_SURFACE('',#449,9.45E0);
#451=ORIENTED_EDGE('',*,*,#410,.F.);
#452=ORIENTED_EDGE('',*,*,#369,.T.);
#453=ORIENTED_EDGE('',*,*,#407,.T.);
#454=ORIENTED_EDGE('',*,*,#427,.T.);
#455=EDGE_LOOP('',(#451,#452,#453,#454));
#456=FACE_OUTER_BOUND('',#455,.F.);
#457=ADVANCED_FACE('',(#456),#450,.T.);
#458=FILL_AREA_STYLE_COLOUR('',#5);
#459=FILL_AREA_STYLE('',(#458));
#460=SURFACE_STYLE_FILL_AREA(#459);
#461=SURFACE_SIDE_STYLE('',(#460));
#462=SURFACE_STYLE_USAGE(.BOTH.,#461);
#463=PRESENTATION_STYLE_ASSIGNMENT((#462));
#464=STYLED_ITEM('',(#463),#457);
#465=CARTESIAN_POINT('',(0.E0,0.E0,5.025E0));
#466=DIRECTION('',(0.E0,0.E0,1.E0));
#467=DIRECTION('',(1.E0,0.E0,0.E0));
#468=AXIS2_PLACEMENT_3D('',#465,#466,#467);
#469=CYLINDRICAL_SURFACE('',#468,8.5E0);
#471=ORIENTED_EDGE('',*,*,#470,.F.);
#472=ORIENTED_EDGE('',*,*,#432,.T.);
#474=ORIENTED_EDGE('',*,*,#473,.T.);
#476=ORIENTED_EDGE('',*,*,#475,.T.);
#477=EDGE_LOOP('',(#471,#472,#474,#476));
#478=FACE_OUTER_BOUND('',#477,.F.);
#479=ADVANCED_FACE('',(#478),#469,.F.);
#480=FILL_AREA_STYLE_COLOUR('',#5);
#481=FILL_AREA_STYLE('',(#480));
#482=SURFACE_STYLE_FILL_AREA(#481);
#483=SURFACE_SIDE_STYLE('',(#482));
#484=SURFACE_STYLE_USAGE(.BOTH.,#483);
#485=PRESENTATION_STYLE_ASSIGNMENT((#484));
#486=STYLED_ITEM('',(#485),#479);
#487=CARTESIAN_POINT('',(0.E0,0.E0,5.025E0));
#488=DIRECTION('',(0.E0,0.E0,1.E0));
#489=DIRECTION('',(1.E0,0.E0,0.E0));
#490=AXIS2_PLACEMENT_3D('',#487,#488,#489);
#491=CYLINDRICAL_SURFACE('',#490,8.5E0);
#493=ORIENTED_EDGE('',*,*,#492,.T.);
#494=ORIENTED_EDGE('',*,*,#473,.F.);
#495=ORIENTED_EDGE('',*,*,#434,.T.);
#496=ORIENTED_EDGE('',*,*,#470,.T.);
#497=EDGE_LOOP('',(#493,#494,#495,#496));
#498=FACE_OUTER_BOUND('',#497,.F.);
#499=ADVANCED_FACE('',(#498),#491,.F.);
#500=FILL_AREA_STYLE_COLOUR('',#5);
#501=FILL_AREA_STYLE('',(#500));
#502=SURFACE_STYLE_FILL_AREA(#501);
#503=SURFACE_SIDE_STYLE('',(#502));
#504=SURFACE_STYLE_USAGE(.BOTH.,#503);
#505=PRESENTATION_STYLE_ASSIGNMENT((#504));
#506=STYLED_ITEM('',(#505),#499);
#507=CARTESIAN_POINT('',(0.E0,0.E0,5.025E0));
#508=DIRECTION('',(0.E0,0.E0,1.E0));
#509=DIRECTION('',(1.E0,0.E0,0.E0));
#510=AXIS2_PLACEMENT_3D('',#507,#508,#509);
#511=PLANE('',#510);
#512=ORIENTED_EDGE('',*,*,#475,.F.);
#513=ORIENTED_EDGE('',*,*,#492,.F.);
#514=EDGE_LOOP('',(#512,#513));
#515=FACE_OUTER_BOUND('',#514,.F.);
#516=ADVANCED_FACE('',(#515),#511,.T.);
#517=FILL_AREA_STYLE_COLOUR('',#31);
#518=FILL_AREA_STYLE('',(#517));
#519=SURFACE_STYLE_FILL_AREA(#518);
#520=SURFACE_SIDE_STYLE('',(#519));
#521=SURFACE_STYLE_USAGE(.POSITIVE.,#520);
#522=FILL_AREA_STYLE_COLOUR('',#5);
#523=FILL_AREA_STYLE('',(#522));
#524=SURFACE_STYLE_FILL_AREA(#523);
#525=SURFACE_SIDE_STYLE('',(#524));
#526=SURFACE_STYLE_USAGE(.NEGATIVE.,#525);
#527=PRESENTATION_STYLE_ASSIGNMENT((#521,#526));
#528=STYLED_ITEM('',(#527),#516);
#529=CARTESIAN_POINT('',(0.E0,0.E0,-9.5E-1));
#530=DIRECTION('',(0.E0,0.E0,1.E0));
#531=DIRECTION('',(1.E0,0.E0,0.E0));
#532=AXIS2_PLACEMENT_3D('',#529,#530,#531);
#533=CYLINDRICAL_SURFACE('',#532,9.8E0);
#534=ORIENTED_EDGE('',*,*,#257,.T.);
#535=ORIENTED_EDGE('',*,*,#241,.T.);
#536=ORIENTED_EDGE('',*,*,#226,.T.);
#537=ORIENTED_EDGE('',*,*,#238,.F.);
#538=EDGE_LOOP('',(#534,#535,#536,#537));
#539=FACE_OUTER_BOUND('',#538,.F.);
#540=ADVANCED_FACE('',(#539),#533,.T.);
#541=CLOSED_SHELL('',(#230,#245,#262,#284,#304,#327,#349,#373,#392,#414,#438,
#457,#479,#499,#516,#540));
#542=MANIFOLD_SOLID_BREP('',#541);
#543=CARTESIAN_POINT('',(0.E0,0.E0,0.E0));
#544=DIRECTION('',(0.E0,0.E0,1.E0));
#545=DIRECTION('',(1.E0,0.E0,0.E0));
#546=AXIS2_PLACEMENT_3D('STANDARD',#543,#544,#545);
#547=DRAUGHTING_PRE_DEFINED_CURVE_FONT('continuous');
#548=CURVE_STYLE('',#547,POSITIVE_LENGTH_MEASURE(2.E-2),#27);
#549=PRESENTATION_STYLE_ASSIGNMENT((#548));
#550=STYLED_ITEM('',(#549),#546);
#551=DIRECTION('',(-1.E0,0.E0,0.E0));
#552=VECTOR('',#551,2.06E1);
#553=CARTESIAN_POINT('',(1.03E1,0.E0,0.E0));
#554=LINE('',#553,#552);
#556=CURVE_STYLE('',#547,POSITIVE_LENGTH_MEASURE(2.E-2),#37);
#557=PRESENTATION_STYLE_ASSIGNMENT((#556));
#558=STYLED_ITEM('',(#557),#555);
#560=DIRECTION('',(0.E0,1.E0,0.E0));
#561=VECTOR('',#560,2.06E1);
#562=CARTESIAN_POINT('',(0.E0,-1.03E1,0.E0));
#563=LINE('',#562,#561);
#565=CURVE_STYLE('',#547,POSITIVE_LENGTH_MEASURE(2.E-2),#37);
#566=PRESENTATION_STYLE_ASSIGNMENT((#565));
#567=STYLED_ITEM('',(#566),#564);
#568=DIRECTION('',(0.E0,0.E0,1.E0));
#569=VECTOR('',#568,6.05E0);
#570=CARTESIAN_POINT('',(0.E0,0.E0,-9.5E-1));
#571=LINE('',#570,#569);
#573=CURVE_STYLE('',#547,POSITIVE_LENGTH_MEASURE(2.E-2),#37);
#574=PRESENTATION_STYLE_ASSIGNMENT((#573));
#575=STYLED_ITEM('',(#574),#572);
#576=PRESENTATION_LAYER_ASSIGNMENT('02___AXES','',(#555,#564,#572));
#577=PRESENTATION_LAYER_ASSIGNMENT('05___CSYS','',(#546));
#579=DIMENSIONAL_EXPONENTS(0.E0,0.E0,0.E0,0.E0,0.E0,0.E0,0.E0);
#581=PLANE_ANGLE_MEASURE_WITH_UNIT(PLANE_ANGLE_MEASURE(1.745329251994E-2),#580);
#582=(CONVERSION_BASED_UNIT('DEGREE',#581)NAMED_UNIT(*)PLANE_ANGLE_UNIT());
#584=UNCERTAINTY_MEASURE_WITH_UNIT(LENGTH_MEASURE(2.774320863232E-3),#578,
'closure',
'Maximum model space distance between geometric entities at asserted connectivities');
#585=(GEOMETRIC_REPRESENTATION_CONTEXT(3)GLOBAL_UNCERTAINTY_ASSIGNED_CONTEXT((
#584))GLOBAL_UNIT_ASSIGNED_CONTEXT((#578,#582,#583))REPRESENTATION_CONTEXT
('ID1','3'));
#559=GEOMETRIC_SET('',(#555,#564,#572));
#589=SHAPE_REPRESENTATION_RELATIONSHIP('','',#588,#586);
#590=SHAPE_REPRESENTATION_RELATIONSHIP('','',#588,#587);
#591=MECHANICAL_DESIGN_GEOMETRIC_PRESENTATION_REPRESENTATION('',(#269,#291,#311,
#334,#356,#380,#399,#421,#445,#464,#486,#506,#528,#550,#558,#567,#575),#585);
#592=APPLICATION_CONTEXT(
'CONFIGURATION CONTROLLED 3D DESIGNS OF MECHANICAL PARTS AND ASSEMBLIES');
#593=APPLICATION_PROTOCOL_DEFINITION('international standard',
'config_control_design',1994,#592);
#594=DESIGN_CONTEXT('',#592,'design');
#595=MECHANICAL_CONTEXT('',#592,'mechanical');
#596=PRODUCT('CAD-8484_SW0001','CAD-8484_SW0001','NOT SPECIFIED',(#595));
#597=PRODUCT_DEFINITION_FORMATION_WITH_SPECIFIED_SOURCE('1','LAST_VERSION',#596,
.MADE.);
#601=PRODUCT_CATEGORY('part','');
#602=PRODUCT_RELATED_PRODUCT_CATEGORY('detail','',(#596));
#603=PRODUCT_CATEGORY_RELATIONSHIP('','',#601,#602);
#604=SECURITY_CLASSIFICATION_LEVEL('unclassified');
#605=SECURITY_CLASSIFICATION('','',#604);
#606=CC_DESIGN_SECURITY_CLASSIFICATION(#605,(#597));
#607=APPROVAL_STATUS('approved');
#608=APPROVAL(#607,'');
#609=CC_DESIGN_APPROVAL(#608,(#605,#597,#598));
#610=CALENDAR_DATE(122,1,7);
#611=COORDINATED_UNIVERSAL_TIME_OFFSET(2,0,.AHEAD.);
#612=LOCAL_TIME(7,8,2.1E1,#611);
#613=DATE_AND_TIME(#610,#612);
#614=APPROVAL_DATE_TIME(#613,#608);
#615=DATE_TIME_ROLE('creation_date');
#616=CC_DESIGN_DATE_AND_TIME_ASSIGNMENT(#613,#615,(#598));
#617=DATE_TIME_ROLE('classification_date');
#618=CC_DESIGN_DATE_AND_TIME_ASSIGNMENT(#613,#617,(#605));
#619=PERSON('UNSPECIFIED','UNSPECIFIED',$,$,$,$);
#620=ORGANIZATION('UNSPECIFIED','UNSPECIFIED','UNSPECIFIED');
#621=PERSON_AND_ORGANIZATION(#619,#620);
#622=APPROVAL_ROLE('approver');
#623=APPROVAL_PERSON_ORGANIZATION(#621,#608,#622);
#624=PERSON_AND_ORGANIZATION_ROLE('creator');
#625=CC_DESIGN_PERSON_AND_ORGANIZATION_ASSIGNMENT(#621,#624,(#597,#598));
#626=PERSON_AND_ORGANIZATION_ROLE('design_supplier');
#627=CC_DESIGN_PERSON_AND_ORGANIZATION_ASSIGNMENT(#621,#626,(#597));
#628=PERSON_AND_ORGANIZATION_ROLE('classification_officer');
#629=CC_DESIGN_PERSON_AND_ORGANIZATION_ASSIGNMENT(#621,#628,(#605));
#630=PERSON_AND_ORGANIZATION_ROLE('design_owner');
#631=CC_DESIGN_PERSON_AND_ORGANIZATION_ASSIGNMENT(#621,#630,(#596));
#1=COLOUR_RGB('',0.E0,0.E0,1.96E-1);
#2=COLOUR_RGB('',0.E0,0.E0,3.14E-1);
#3=COLOUR_RGB('',0.E0,1.96E-1,0.E0);
#4=COLOUR_RGB('',0.E0,3.14E-1,0.E0);
#5=COLOUR_RGB('',0.E0,6.470588235294E-1,5.294117647059E-1);
#6=DRAUGHTING_PRE_DEFINED_COLOUR('cyan');
#7=COLOUR_RGB('',7.8E-2,7.8E-2,7.8E-2);
#8=COLOUR_RGB('',1.18E-1,1.18E-1,4.71E-1);
#9=COLOUR_RGB('',1.57E-1,1.57E-1,1.57E-1);
#10=COLOUR_RGB('',1.96E-1,0.E0,0.E0);
#11=COLOUR_RGB('',1.96E-1,0.E0,1.96E-1);
#12=COLOUR_RGB('',1.96E-1,5.88E-1,1.96E-1);
#13=COLOUR_RGB('',2.35E-1,2.35E-1,2.35E-1);
#14=COLOUR_RGB('',2.35E-1,2.35E-1,5.88E-1);
#15=COLOUR_RGB('',3.14E-1,3.14E-1,3.14E-1);
#16=COLOUR_RGB('',3.27543E-1,1.E0,6.33116E-1);
#17=COLOUR_RGB('',3.92E-1,0.E0,0.E0);
#18=COLOUR_RGB('',3.92E-1,0.E0,3.92E-1);
#19=COLOUR_RGB('',3.92E-1,3.92E-1,3.92E-1);
#20=COLOUR_RGB('',3.92E-1,3.92E-1,8.63E-1);
#21=COLOUR_RGB('',3.92E-1,5.88E-1,3.92E-1);
#22=COLOUR_RGB('',3.92E-1,5.88E-1,8.63E-1);
#23=COLOUR_RGB('',5.01961E-1,1.E0,5.01961E-1);
#24=COLOUR_RGB('',5.5E-1,5.6E-1,7.E-1);
#25=COLOUR_RGB('',5.88E-1,5.88E-1,5.88E-1);
#26=COLOUR_RGB('',5.88E-1,7.84E-1,5.88E-1);
#27=COLOUR_RGB('',6.E-1,4.E-1,2.E-1);
#28=COLOUR_RGB('',6.2E-1,3.1E-1,6.5E-1);
#29=COLOUR_RGB('',6.8E-1,8.5E-1,1.E0);
#30=COLOUR_RGB('',6.952E-1,7.426E-1,7.9E-1);
#31=COLOUR_RGB('',7.019607843137E-1,7.333333333333E-1,7.568627450980E-1);
#32=COLOUR_RGB('',7.921568627451E-1,8.196078431373E-1,9.333333333333E-1);
#33=COLOUR_RGB('',9.8E-1,3.92E-1,0.E0);
#34=COLOUR_RGB('',9.8E-1,5.88E-1,0.E0);
#35=COLOUR_RGB('',9.8E-1,7.84E-1,0.E0);
#36=COLOUR_RGB('',1.E0,3.7E-1,3.8E-1);
#37=COLOUR_RGB('',1.E0,8.E-1,2.E-1);
#38=DRAUGHTING_PRE_DEFINED_COLOUR('white');
#43=CIRCLE('',#42,9.8E0);
#48=CIRCLE('',#47,9.8E0);
#53=CIRCLE('',#52,9.8E0);
#62=CIRCLE('',#61,1.03E1);
#67=CIRCLE('',#66,1.03E1);
#80=CIRCLE('',#79,1.03E1);
#85=CIRCLE('',#84,1.03E1);
#90=CIRCLE('',#89,9.55E0);
#95=CIRCLE('',#94,9.55E0);
#104=CIRCLE('',#103,9.55E0);
#109=CIRCLE('',#108,9.55E0);
#114=CIRCLE('',#113,9.45E0);
#119=CIRCLE('',#118,9.45E0);
#132=CIRCLE('',#131,9.45E0);
#137=CIRCLE('',#136,9.45E0);
#142=CIRCLE('',#141,8.5E0);
#147=CIRCLE('',#146,8.5E0);
#164=CIRCLE('',#163,8.5E0);
#169=CIRCLE('',#168,8.5E0);
#174=CIRCLE('',#173,9.8E0);
#224=EDGE_CURVE('',#182,#181,#43,.T.);
#226=EDGE_CURVE('',#181,#182,#48,.T.);
#236=EDGE_CURVE('',#218,#217,#53,.T.);
#238=EDGE_CURVE('',#217,#182,#178,.T.);
#241=EDGE_CURVE('',#218,#181,#57,.T.);
#251=EDGE_CURVE('',#192,#214,#62,.T.);
#253=EDGE_CURVE('',#214,#192,#67,.T.);
#257=EDGE_CURVE('',#217,#218,#174,.T.);
#275=EDGE_CURVE('',#192,#190,#71,.T.);
#278=EDGE_CURVE('',#214,#189,#75,.T.);
#280=EDGE_CURVE('',#189,#190,#85,.T.);
#297=EDGE_CURVE('',#190,#189,#80,.T.);
#321=EDGE_CURVE('',#208,#206,#90,.T.);
#323=EDGE_CURVE('',#206,#208,#95,.T.);
#340=EDGE_CURVE('',#199,#200,#104,.T.);
#342=EDGE_CURVE('',#208,#200,#99,.T.);
#345=EDGE_CURVE('',#206,#199,#123,.T.);
#363=EDGE_CURVE('',#200,#199,#109,.T.);
#367=EDGE_CURVE('',#186,#185,#114,.T.);
#369=EDGE_CURVE('',#185,#186,#119,.T.);
#405=EDGE_CURVE('',#196,#195,#137,.T.);
#407=EDGE_CURVE('',#186,#195,#127,.T.);
#410=EDGE_CURVE('',#185,#196,#151,.T.);
#427=EDGE_CURVE('',#195,#196,#132,.T.);
#432=EDGE_CURVE('',#211,#212,#142,.T.);
#434=EDGE_CURVE('',#212,#211,#147,.T.);
#470=EDGE_CURVE('',#211,#204,#155,.T.);
#473=EDGE_CURVE('',#212,#203,#159,.T.);
#475=EDGE_CURVE('',#203,#204,#164,.T.);
#492=EDGE_CURVE('',#204,#203,#169,.T.);
#555=TRIMMED_CURVE('A_X',#554,(PARAMETER_VALUE(0.E0)),(PARAMETER_VALUE(1.E0)),
.T.,.UNSPECIFIED.);
#564=TRIMMED_CURVE('A_Y',#563,(PARAMETER_VALUE(0.E0)),(PARAMETER_VALUE(1.E0)),
.T.,.UNSPECIFIED.);
#572=TRIMMED_CURVE('A_Z',#571,(PARAMETER_VALUE(0.E0)),(PARAMETER_VALUE(1.E0)),
.T.,.UNSPECIFIED.);
#578=(LENGTH_UNIT()NAMED_UNIT(*)SI_UNIT(.MILLI.,.METRE.));
#580=(NAMED_UNIT(*)PLANE_ANGLE_UNIT()SI_UNIT($,.RADIAN.));
#583=(NAMED_UNIT(*)SI_UNIT($,.STERADIAN.)SOLID_ANGLE_UNIT());
#586=ADVANCED_BREP_SHAPE_REPRESENTATION('',(#542),#585);
#587=GEOMETRICALLY_BOUNDED_SURFACE_SHAPE_REPRESENTATION('',(#559),#585);
#588=SHAPE_REPRESENTATION('',(#546),#585);
#598=PRODUCT_DEFINITION('design','',#597,#594);
#599=PRODUCT_DEFINITION_SHAPE('','SHAPE FOR CAD-8484_SW0001.',#598);
#600=SHAPE_DEFINITION_REPRESENTATION(#599,#588);
ENDSEC;
END-ISO-10303-21;
