ISO-10303-21;
HEADER;
FILE_DESCRIPTION((''),'2;1');
FILE_NAME('CAD-8509','2022-08-04T08:40:05',('creinig-se'),(''),
'CREO PARAMETRIC BY PTC INC, 2019292','CREO PARAMETRIC BY PTC INC, 2019292','');
FILE_SCHEMA(('CONFIG_CONTROL_DESIGN','SHAPE_APPEARANCE_LAYERS_GROUPS'));
ENDSEC;
DATA;
#35=CARTESIAN_POINT('',(0.E0,-1.2E0,0.E0));
#36=DIRECTION('',(0.E0,1.E0,0.E0));
#37=DIRECTION('',(0.E0,0.E0,1.E0));
#38=AXIS2_PLACEMENT_3D('',#35,#36,#37);
#40=DRAUGHTING_PRE_DEFINED_CURVE_FONT('continuous');
#41=CURVE_STYLE('',#40,POSITIVE_LENGTH_MEASURE(2.E-2),#28);
#42=PRESENTATION_STYLE_ASSIGNMENT((#41));
#43=STYLED_ITEM('',(#42),#39);
#44=CARTESIAN_POINT('',(0.E0,-1.2E0,2.9E0));
#45=DIRECTION('',(1.E0,0.E0,0.E0));
#46=DIRECTION('',(0.E0,-1.E0,0.E0));
#47=AXIS2_PLACEMENT_3D('',#44,#45,#46);
#49=CURVE_STYLE('',#40,POSITIVE_LENGTH_MEASURE(2.E-2),#28);
#50=PRESENTATION_STYLE_ASSIGNMENT((#49));
#51=STYLED_ITEM('',(#50),#48);
#52=DIRECTION('',(0.E0,-1.E0,0.E0));
#53=VECTOR('',#52,1.9E0);
#54=CARTESIAN_POINT('',(0.E0,7.E-1,-2.6E0));
#55=LINE('',#54,#53);
#56=CURVE_STYLE('',#40,POSITIVE_LENGTH_MEASURE(2.E-2),#28);
#57=PRESENTATION_STYLE_ASSIGNMENT((#56));
#58=STYLED_ITEM('',(#57),#55);
#59=DIRECTION('',(0.E0,-1.E0,0.E0));
#60=VECTOR('',#59,1.9E0);
#61=CARTESIAN_POINT('',(0.E0,7.E-1,2.6E0));
#62=LINE('',#61,#60);
#63=CURVE_STYLE('',#40,POSITIVE_LENGTH_MEASURE(2.E-2),#28);
#64=PRESENTATION_STYLE_ASSIGNMENT((#63));
#65=STYLED_ITEM('',(#64),#62);
#66=CARTESIAN_POINT('',(0.E0,-1.2E0,-2.9E0));
#67=DIRECTION('',(-1.E0,0.E0,0.E0));
#68=DIRECTION('',(0.E0,-1.E0,0.E0));
#69=AXIS2_PLACEMENT_3D('',#66,#67,#68);
#71=CURVE_STYLE('',#40,POSITIVE_LENGTH_MEASURE(2.E-2),#28);
#72=PRESENTATION_STYLE_ASSIGNMENT((#71));
#73=STYLED_ITEM('',(#72),#70);
#74=CARTESIAN_POINT('',(0.E0,-1.2E0,0.E0));
#75=DIRECTION('',(0.E0,1.E0,0.E0));
#76=DIRECTION('',(0.E0,0.E0,-1.E0));
#77=AXIS2_PLACEMENT_3D('',#74,#75,#76);
#79=CURVE_STYLE('',#40,POSITIVE_LENGTH_MEASURE(2.E-2),#28);
#80=PRESENTATION_STYLE_ASSIGNMENT((#79));
#81=STYLED_ITEM('',(#80),#78);
#82=CARTESIAN_POINT('',(0.E0,-1.5E0,0.E0));
#83=DIRECTION('',(0.E0,-1.E0,0.E0));
#84=DIRECTION('',(0.E0,0.E0,1.E0));
#85=AXIS2_PLACEMENT_3D('',#82,#83,#84);
#87=CURVE_STYLE('',#40,POSITIVE_LENGTH_MEASURE(2.E-2),#28);
#88=PRESENTATION_STYLE_ASSIGNMENT((#87));
#89=STYLED_ITEM('',(#88),#86);
#90=CARTESIAN_POINT('',(0.E0,-1.5E0,0.E0));
#91=DIRECTION('',(0.E0,-1.E0,0.E0));
#92=DIRECTION('',(0.E0,0.E0,-1.E0));
#93=AXIS2_PLACEMENT_3D('',#90,#91,#92);
#95=CURVE_STYLE('',#40,POSITIVE_LENGTH_MEASURE(2.E-2),#28);
#96=PRESENTATION_STYLE_ASSIGNMENT((#95));
#97=STYLED_ITEM('',(#96),#94);
#98=CARTESIAN_POINT('',(0.E0,-1.5E0,0.E0));
#99=DIRECTION('',(0.E0,1.E0,0.E0));
#100=DIRECTION('',(0.E0,0.E0,1.E0));
#101=AXIS2_PLACEMENT_3D('',#98,#99,#100);
#103=CURVE_STYLE('',#40,POSITIVE_LENGTH_MEASURE(2.E-2),#28);
#104=PRESENTATION_STYLE_ASSIGNMENT((#103));
#105=STYLED_ITEM('',(#104),#102);
#106=CARTESIAN_POINT('',(0.E0,-1.5E0,0.E0));
#107=DIRECTION('',(0.E0,1.E0,0.E0));
#108=DIRECTION('',(0.E0,0.E0,-1.E0));
#109=AXIS2_PLACEMENT_3D('',#106,#107,#108);
#111=CURVE_STYLE('',#40,POSITIVE_LENGTH_MEASURE(2.E-2),#28);
#112=PRESENTATION_STYLE_ASSIGNMENT((#111));
#113=STYLED_ITEM('',(#112),#110);
#114=CARTESIAN_POINT('',(0.E0,-1.E0,-1.444690604772E1));
#115=DIRECTION('',(-1.E0,0.E0,0.E0));
#116=DIRECTION('',(0.E0,-5.233595624294E-2,-9.986295347546E-1));
#117=AXIS2_PLACEMENT_3D('',#114,#115,#116);
#119=CURVE_STYLE('',#40,POSITIVE_LENGTH_MEASURE(2.E-2),#28);
#120=PRESENTATION_STYLE_ASSIGNMENT((#119));
#121=STYLED_ITEM('',(#120),#118);
#122=CARTESIAN_POINT('',(0.E0,-1.026167978121E0,0.E0));
#123=DIRECTION('',(0.E0,-1.E0,0.E0));
#124=DIRECTION('',(0.E0,0.E0,1.E0));
#125=AXIS2_PLACEMENT_3D('',#122,#123,#124);
#127=CURVE_STYLE('',#40,POSITIVE_LENGTH_MEASURE(2.E-2),#28);
#128=PRESENTATION_STYLE_ASSIGNMENT((#127));
#129=STYLED_ITEM('',(#128),#126);
#130=CARTESIAN_POINT('',(0.E0,-1.E0,1.444690604772E1));
#131=DIRECTION('',(1.E0,0.E0,0.E0));
#132=DIRECTION('',(0.E0,-5.233595624294E-2,9.986295347546E-1));
#133=AXIS2_PLACEMENT_3D('',#130,#131,#132);
#135=CURVE_STYLE('',#40,POSITIVE_LENGTH_MEASURE(2.E-2),#28);
#136=PRESENTATION_STYLE_ASSIGNMENT((#135));
#137=STYLED_ITEM('',(#136),#134);
#138=CARTESIAN_POINT('',(0.E0,-1.026167978121E0,0.E0));
#139=DIRECTION('',(0.E0,-1.E0,0.E0));
#140=DIRECTION('',(0.E0,0.E0,-1.E0));
#141=AXIS2_PLACEMENT_3D('',#138,#139,#140);
#143=CURVE_STYLE('',#40,POSITIVE_LENGTH_MEASURE(2.E-2),#28);
#144=PRESENTATION_STYLE_ASSIGNMENT((#143));
#145=STYLED_ITEM('',(#144),#142);
#146=DIRECTION('',(0.E0,-9.986295347546E-1,-5.233595624294E-2));
#147=VECTOR('',#146,1.027576235639E0);
#148=CARTESIAN_POINT('',(0.E0,8.526512829121E-14,1.5E1));
#149=LINE('',#148,#147);
#150=CURVE_STYLE('',#40,POSITIVE_LENGTH_MEASURE(2.E-2),#28);
#151=PRESENTATION_STYLE_ASSIGNMENT((#150));
#152=STYLED_ITEM('',(#151),#149);
#153=CARTESIAN_POINT('',(0.E0,5.684341886081E-14,0.E0));
#154=DIRECTION('',(0.E0,-1.E0,0.E0));
#155=DIRECTION('',(0.E0,0.E0,-1.E0));
#156=AXIS2_PLACEMENT_3D('',#153,#154,#155);
#158=CURVE_STYLE('',#40,POSITIVE_LENGTH_MEASURE(2.E-2),#28);
#159=PRESENTATION_STYLE_ASSIGNMENT((#158));
#160=STYLED_ITEM('',(#159),#157);
#161=DIRECTION('',(0.E0,-9.986295347546E-1,5.233595624294E-2));
#162=VECTOR('',#161,1.027576235639E0);
#163=CARTESIAN_POINT('',(0.E0,8.526512829121E-14,-1.5E1));
#164=LINE('',#163,#162);
#165=CURVE_STYLE('',#40,POSITIVE_LENGTH_MEASURE(2.E-2),#28);
#166=PRESENTATION_STYLE_ASSIGNMENT((#165));
#167=STYLED_ITEM('',(#166),#164);
#168=CARTESIAN_POINT('',(0.E0,5.684341886081E-14,0.E0));
#169=DIRECTION('',(0.E0,-1.E0,0.E0));
#170=DIRECTION('',(0.E0,0.E0,1.E0));
#171=AXIS2_PLACEMENT_3D('',#168,#169,#170);
#173=CURVE_STYLE('',#40,POSITIVE_LENGTH_MEASURE(2.E-2),#28);
#174=PRESENTATION_STYLE_ASSIGNMENT((#173));
#175=STYLED_ITEM('',(#174),#172);
#176=DIRECTION('',(0.E0,1.E0,0.E0));
#177=VECTOR('',#176,4.999999999999E-1);
#178=CARTESIAN_POINT('',(0.E0,8.526512829121E-14,1.5E1));
#179=LINE('',#178,#177);
#180=CURVE_STYLE('',#40,POSITIVE_LENGTH_MEASURE(2.E-2),#28);
#181=PRESENTATION_STYLE_ASSIGNMENT((#180));
#182=STYLED_ITEM('',(#181),#179);
#183=DIRECTION('',(0.E0,1.E0,0.E0));
#184=VECTOR('',#183,4.999999999999E-1);
#185=CARTESIAN_POINT('',(0.E0,8.526512829121E-14,-1.5E1));
#186=LINE('',#185,#184);
#187=CURVE_STYLE('',#40,POSITIVE_LENGTH_MEASURE(2.E-2),#28);
#188=PRESENTATION_STYLE_ASSIGNMENT((#187));
#189=STYLED_ITEM('',(#188),#186);
#190=CARTESIAN_POINT('',(0.E0,5.E-1,0.E0));
#191=DIRECTION('',(0.E0,1.E0,0.E0));
#192=DIRECTION('',(0.E0,0.E0,1.E0));
#193=AXIS2_PLACEMENT_3D('',#190,#191,#192);
#195=CURVE_STYLE('',#40,POSITIVE_LENGTH_MEASURE(2.E-2),#28);
#196=PRESENTATION_STYLE_ASSIGNMENT((#195));
#197=STYLED_ITEM('',(#196),#194);
#198=CARTESIAN_POINT('',(0.E0,5.E-1,1.45E1));
#199=DIRECTION('',(1.E0,0.E0,0.E0));
#200=DIRECTION('',(0.E0,1.E0,0.E0));
#201=AXIS2_PLACEMENT_3D('',#198,#199,#200);
#203=CURVE_STYLE('',#40,POSITIVE_LENGTH_MEASURE(2.E-2),#28);
#204=PRESENTATION_STYLE_ASSIGNMENT((#203));
#205=STYLED_ITEM('',(#204),#202);
#206=CARTESIAN_POINT('',(0.E0,5.E-1,-1.45E1));
#207=DIRECTION('',(-1.E0,0.E0,0.E0));
#208=DIRECTION('',(0.E0,1.E0,0.E0));
#209=AXIS2_PLACEMENT_3D('',#206,#207,#208);
#211=CURVE_STYLE('',#40,POSITIVE_LENGTH_MEASURE(2.E-2),#28);
#212=PRESENTATION_STYLE_ASSIGNMENT((#211));
#213=STYLED_ITEM('',(#212),#210);
#214=CARTESIAN_POINT('',(0.E0,5.E-1,0.E0));
#215=DIRECTION('',(0.E0,1.E0,0.E0));
#216=DIRECTION('',(0.E0,0.E0,-1.E0));
#217=AXIS2_PLACEMENT_3D('',#214,#215,#216);
#219=CURVE_STYLE('',#40,POSITIVE_LENGTH_MEASURE(2.E-2),#28);
#220=PRESENTATION_STYLE_ASSIGNMENT((#219));
#221=STYLED_ITEM('',(#220),#218);
#222=CARTESIAN_POINT('',(0.E0,1.E0,0.E0));
#223=DIRECTION('',(0.E0,1.E0,0.E0));
#224=DIRECTION('',(0.E0,0.E0,1.E0));
#225=AXIS2_PLACEMENT_3D('',#222,#223,#224);
#227=CURVE_STYLE('',#40,POSITIVE_LENGTH_MEASURE(2.E-2),#28);
#228=PRESENTATION_STYLE_ASSIGNMENT((#227));
#229=STYLED_ITEM('',(#228),#226);
#230=CARTESIAN_POINT('',(0.E0,1.E0,0.E0));
#231=DIRECTION('',(0.E0,1.E0,0.E0));
#232=DIRECTION('',(0.E0,0.E0,-1.E0));
#233=AXIS2_PLACEMENT_3D('',#230,#231,#232);
#235=CURVE_STYLE('',#40,POSITIVE_LENGTH_MEASURE(2.E-2),#28);
#236=PRESENTATION_STYLE_ASSIGNMENT((#235));
#237=STYLED_ITEM('',(#236),#234);
#238=CARTESIAN_POINT('',(0.E0,1.E0,0.E0));
#239=DIRECTION('',(0.E0,-1.E0,0.E0));
#240=DIRECTION('',(0.E0,0.E0,1.E0));
#241=AXIS2_PLACEMENT_3D('',#238,#239,#240);
#243=CURVE_STYLE('',#40,POSITIVE_LENGTH_MEASURE(2.E-2),#28);
#244=PRESENTATION_STYLE_ASSIGNMENT((#243));
#245=STYLED_ITEM('',(#244),#242);
#246=CARTESIAN_POINT('',(0.E0,1.E0,0.E0));
#247=DIRECTION('',(0.E0,-1.E0,0.E0));
#248=DIRECTION('',(0.E0,0.E0,-1.E0));
#249=AXIS2_PLACEMENT_3D('',#246,#247,#248);
#251=CURVE_STYLE('',#40,POSITIVE_LENGTH_MEASURE(2.E-2),#28);
#252=PRESENTATION_STYLE_ASSIGNMENT((#251));
#253=STYLED_ITEM('',(#252),#250);
#254=CARTESIAN_POINT('',(0.E0,7.E-1,-2.9E0));
#255=DIRECTION('',(-1.E0,0.E0,0.E0));
#256=DIRECTION('',(0.E0,0.E0,1.E0));
#257=AXIS2_PLACEMENT_3D('',#254,#255,#256);
#259=CURVE_STYLE('',#40,POSITIVE_LENGTH_MEASURE(2.E-2),#28);
#260=PRESENTATION_STYLE_ASSIGNMENT((#259));
#261=STYLED_ITEM('',(#260),#258);
#262=CARTESIAN_POINT('',(0.E0,7.E-1,0.E0));
#263=DIRECTION('',(0.E0,-1.E0,0.E0));
#264=DIRECTION('',(0.E0,0.E0,1.E0));
#265=AXIS2_PLACEMENT_3D('',#262,#263,#264);
#267=CURVE_STYLE('',#40,POSITIVE_LENGTH_MEASURE(2.E-2),#28);
#268=PRESENTATION_STYLE_ASSIGNMENT((#267));
#269=STYLED_ITEM('',(#268),#266);
#270=CARTESIAN_POINT('',(0.E0,7.E-1,2.9E0));
#271=DIRECTION('',(1.E0,0.E0,0.E0));
#272=DIRECTION('',(0.E0,0.E0,-1.E0));
#273=AXIS2_PLACEMENT_3D('',#270,#271,#272);
#275=CURVE_STYLE('',#40,POSITIVE_LENGTH_MEASURE(2.E-2),#28);
#276=PRESENTATION_STYLE_ASSIGNMENT((#275));
#277=STYLED_ITEM('',(#276),#274);
#278=CARTESIAN_POINT('',(0.E0,7.E-1,0.E0));
#279=DIRECTION('',(0.E0,-1.E0,0.E0));
#280=DIRECTION('',(0.E0,0.E0,-1.E0));
#281=AXIS2_PLACEMENT_3D('',#278,#279,#280);
#283=CURVE_STYLE('',#40,POSITIVE_LENGTH_MEASURE(2.E-2),#28);
#284=PRESENTATION_STYLE_ASSIGNMENT((#283));
#285=STYLED_ITEM('',(#284),#282);
#286=CARTESIAN_POINT('',(0.E0,-1.026167978121E0,1.494622081510E1));
#287=CARTESIAN_POINT('',(0.E0,-1.026167978121E0,-1.494622081510E1));
#288=VERTEX_POINT('',#286);
#289=VERTEX_POINT('',#287);
#290=CARTESIAN_POINT('',(0.E0,1.E0,2.9E0));
#291=CARTESIAN_POINT('',(0.E0,1.E0,-2.9E0));
#292=VERTEX_POINT('',#290);
#293=VERTEX_POINT('',#291);
#294=CARTESIAN_POINT('',(0.E0,8.526512829121E-14,-1.5E1));
#295=VERTEX_POINT('',#294);
#296=CARTESIAN_POINT('',(0.E0,7.E-1,2.6E0));
#297=CARTESIAN_POINT('',(0.E0,7.E-1,-2.6E0));
#298=VERTEX_POINT('',#296);
#299=VERTEX_POINT('',#297);
#300=CARTESIAN_POINT('',(0.E0,1.E0,1.45E1));
#301=CARTESIAN_POINT('',(0.E0,5.E-1,1.5E1));
#302=VERTEX_POINT('',#300);
#303=VERTEX_POINT('',#301);
#304=CARTESIAN_POINT('',(0.E0,-1.5E0,1.444690604772E1));
#305=CARTESIAN_POINT('',(0.E0,-1.5E0,-1.444690604772E1));
#306=VERTEX_POINT('',#304);
#307=VERTEX_POINT('',#305);
#308=CARTESIAN_POINT('',(0.E0,-1.2E0,-2.6E0));
#309=CARTESIAN_POINT('',(0.E0,-1.2E0,2.6E0));
#310=VERTEX_POINT('',#308);
#311=VERTEX_POINT('',#309);
#312=CARTESIAN_POINT('',(0.E0,-1.5E0,2.9E0));
#313=CARTESIAN_POINT('',(0.E0,-1.5E0,-2.9E0));
#314=VERTEX_POINT('',#312);
#315=VERTEX_POINT('',#313);
#316=CARTESIAN_POINT('',(0.E0,5.E-1,-1.5E1));
#317=VERTEX_POINT('',#316);
#318=CARTESIAN_POINT('',(0.E0,5.684341886081E-14,1.5E1));
#319=VERTEX_POINT('',#318);
#320=CARTESIAN_POINT('',(0.E0,1.E0,-1.45E1));
#321=VERTEX_POINT('',#320);
#322=CARTESIAN_POINT('',(0.E0,-1.2E0,0.E0));
#323=DIRECTION('',(0.E0,1.E0,0.E0));
#324=DIRECTION('',(0.E0,0.E0,1.E0));
#325=AXIS2_PLACEMENT_3D('',#322,#323,#324);
#326=TOROIDAL_SURFACE('',#325,2.9E0,3.E-1);
#328=ORIENTED_EDGE('',*,*,#327,.F.);
#330=ORIENTED_EDGE('',*,*,#329,.F.);
#332=ORIENTED_EDGE('',*,*,#331,.T.);
#334=ORIENTED_EDGE('',*,*,#333,.T.);
#335=EDGE_LOOP('',(#328,#330,#332,#334));
#336=FACE_OUTER_BOUND('',#335,.F.);
#337=ADVANCED_FACE('',(#336),#326,.T.);
#338=CARTESIAN_POINT('',(0.E0,-1.5E0,0.E0));
#339=DIRECTION('',(0.E0,1.E0,0.E0));
#340=DIRECTION('',(0.E0,0.E0,1.E0));
#341=AXIS2_PLACEMENT_3D('',#338,#339,#340);
#342=CYLINDRICAL_SURFACE('',#341,2.6E0);
#344=ORIENTED_EDGE('',*,*,#343,.F.);
#346=ORIENTED_EDGE('',*,*,#345,.T.);
#348=ORIENTED_EDGE('',*,*,#347,.T.);
#349=ORIENTED_EDGE('',*,*,#327,.T.);
#350=EDGE_LOOP('',(#344,#346,#348,#349));
#351=FACE_OUTER_BOUND('',#350,.F.);
#352=ADVANCED_FACE('',(#351),#342,.F.);
#353=CARTESIAN_POINT('',(0.E0,-1.5E0,0.E0));
#354=DIRECTION('',(0.E0,1.E0,0.E0));
#355=DIRECTION('',(0.E0,0.E0,1.E0));
#356=AXIS2_PLACEMENT_3D('',#353,#354,#355);
#357=CYLINDRICAL_SURFACE('',#356,2.6E0);
#359=ORIENTED_EDGE('',*,*,#358,.T.);
#360=ORIENTED_EDGE('',*,*,#347,.F.);
#362=ORIENTED_EDGE('',*,*,#361,.T.);
#363=ORIENTED_EDGE('',*,*,#343,.T.);
#364=EDGE_LOOP('',(#359,#360,#362,#363));
#365=FACE_OUTER_BOUND('',#364,.F.);
#366=ADVANCED_FACE('',(#365),#357,.F.);
#367=CARTESIAN_POINT('',(0.E0,-1.2E0,0.E0));
#368=DIRECTION('',(0.E0,1.E0,0.E0));
#369=DIRECTION('',(0.E0,0.E0,1.E0));
#370=AXIS2_PLACEMENT_3D('',#367,#368,#369);
#371=TOROIDAL_SURFACE('',#370,2.9E0,3.E-1);
#372=ORIENTED_EDGE('',*,*,#333,.F.);
#374=ORIENTED_EDGE('',*,*,#373,.T.);
#375=ORIENTED_EDGE('',*,*,#329,.T.);
#376=ORIENTED_EDGE('',*,*,#358,.F.);
#377=EDGE_LOOP('',(#372,#374,#375,#376));
#378=FACE_OUTER_BOUND('',#377,.F.);
#379=ADVANCED_FACE('',(#378),#371,.T.);
#380=CARTESIAN_POINT('',(0.E0,-1.5E0,0.E0));
#381=DIRECTION('',(0.E0,1.E0,0.E0));
#382=DIRECTION('',(0.E0,0.E0,1.E0));
#383=AXIS2_PLACEMENT_3D('',#380,#381,#382);
#384=PLANE('',#383);
#386=ORIENTED_EDGE('',*,*,#385,.F.);
#388=ORIENTED_EDGE('',*,*,#387,.F.);
#389=EDGE_LOOP('',(#386,#388));
#390=FACE_OUTER_BOUND('',#389,.F.);
#391=ORIENTED_EDGE('',*,*,#331,.F.);
#392=ORIENTED_EDGE('',*,*,#373,.F.);
#393=EDGE_LOOP('',(#391,#392));
#394=FACE_BOUND('',#393,.F.);
#395=ADVANCED_FACE('',(#390,#394),#384,.F.);
#396=CARTESIAN_POINT('',(0.E0,-1.E0,0.E0));
#397=DIRECTION('',(0.E0,1.E0,0.E0));
#398=DIRECTION('',(0.E0,0.E0,1.E0));
#399=AXIS2_PLACEMENT_3D('',#396,#397,#398);
#400=TOROIDAL_SURFACE('',#399,1.444690604772E1,5.E-1);
#402=ORIENTED_EDGE('',*,*,#401,.F.);
#404=ORIENTED_EDGE('',*,*,#403,.F.);
#406=ORIENTED_EDGE('',*,*,#405,.T.);
#407=ORIENTED_EDGE('',*,*,#385,.T.);
#408=EDGE_LOOP('',(#402,#404,#406,#407));
#409=FACE_OUTER_BOUND('',#408,.F.);
#410=ADVANCED_FACE('',(#409),#400,.T.);
#411=CARTESIAN_POINT('',(0.E0,-1.E0,0.E0));
#412=DIRECTION('',(0.E0,1.E0,0.E0));
#413=DIRECTION('',(0.E0,0.E0,1.E0));
#414=AXIS2_PLACEMENT_3D('',#411,#412,#413);
#415=TOROIDAL_SURFACE('',#414,1.444690604772E1,5.E-1);
#416=ORIENTED_EDGE('',*,*,#387,.T.);
#417=ORIENTED_EDGE('',*,*,#405,.F.);
#419=ORIENTED_EDGE('',*,*,#418,.F.);
#420=ORIENTED_EDGE('',*,*,#401,.T.);
#421=EDGE_LOOP('',(#416,#417,#419,#420));
#422=FACE_OUTER_BOUND('',#421,.F.);
#423=ADVANCED_FACE('',(#422),#415,.T.);
#424=CARTESIAN_POINT('',(0.E0,-5.130839890605E-1,0.E0));
#425=DIRECTION('',(0.E0,1.E0,0.E0));
#426=DIRECTION('',(0.E0,0.E0,1.E0));
#427=AXIS2_PLACEMENT_3D('',#424,#425,#426);
#428=CONICAL_SURFACE('',#427,1.497311040755E1,3.E0);
#429=ORIENTED_EDGE('',*,*,#418,.T.);
#431=ORIENTED_EDGE('',*,*,#430,.F.);
#433=ORIENTED_EDGE('',*,*,#432,.F.);
#435=ORIENTED_EDGE('',*,*,#434,.T.);
#436=EDGE_LOOP('',(#429,#431,#433,#435));
#437=FACE_OUTER_BOUND('',#436,.F.);
#438=ADVANCED_FACE('',(#437),#428,.T.);
#439=CARTESIAN_POINT('',(0.E0,-5.130839890605E-1,0.E0));
#440=DIRECTION('',(0.E0,1.E0,0.E0));
#441=DIRECTION('',(0.E0,0.E0,1.E0));
#442=AXIS2_PLACEMENT_3D('',#439,#440,#441);
#443=CONICAL_SURFACE('',#442,1.497311040755E1,3.E0);
#444=ORIENTED_EDGE('',*,*,#434,.F.);
#446=ORIENTED_EDGE('',*,*,#445,.F.);
#447=ORIENTED_EDGE('',*,*,#430,.T.);
#448=ORIENTED_EDGE('',*,*,#403,.T.);
#449=EDGE_LOOP('',(#444,#446,#447,#448));
#450=FACE_OUTER_BOUND('',#449,.F.);
#451=ADVANCED_FACE('',(#450),#443,.T.);
#452=CARTESIAN_POINT('',(0.E0,1.E0,0.E0));
#453=DIRECTION('',(0.E0,-1.E0,0.E0));
#454=DIRECTION('',(0.E0,0.E0,-1.E0));
#455=AXIS2_PLACEMENT_3D('',#452,#453,#454);
#456=CYLINDRICAL_SURFACE('',#455,1.5E1);
#458=ORIENTED_EDGE('',*,*,#457,.F.);
#459=ORIENTED_EDGE('',*,*,#445,.T.);
#461=ORIENTED_EDGE('',*,*,#460,.T.);
#463=ORIENTED_EDGE('',*,*,#462,.T.);
#464=EDGE_LOOP('',(#458,#459,#461,#463));
#465=FACE_OUTER_BOUND('',#464,.F.);
#466=ADVANCED_FACE('',(#465),#456,.T.);
#467=CARTESIAN_POINT('',(0.E0,1.E0,0.E0));
#468=DIRECTION('',(0.E0,-1.E0,0.E0));
#469=DIRECTION('',(0.E0,0.E0,-1.E0));
#470=AXIS2_PLACEMENT_3D('',#467,#468,#469);
#471=CYLINDRICAL_SURFACE('',#470,1.5E1);
#473=ORIENTED_EDGE('',*,*,#472,.T.);
#474=ORIENTED_EDGE('',*,*,#460,.F.);
#475=ORIENTED_EDGE('',*,*,#432,.T.);
#476=ORIENTED_EDGE('',*,*,#457,.T.);
#477=EDGE_LOOP('',(#473,#474,#475,#476));
#478=FACE_OUTER_BOUND('',#477,.F.);
#479=ADVANCED_FACE('',(#478),#471,.T.);
#480=CARTESIAN_POINT('',(0.E0,5.E-1,0.E0));
#481=DIRECTION('',(0.E0,1.E0,0.E0));
#482=DIRECTION('',(0.E0,0.E0,1.E0));
#483=AXIS2_PLACEMENT_3D('',#480,#481,#482);
#484=TOROIDAL_SURFACE('',#483,1.45E1,5.E-1);
#485=ORIENTED_EDGE('',*,*,#472,.F.);
#487=ORIENTED_EDGE('',*,*,#486,.F.);
#489=ORIENTED_EDGE('',*,*,#488,.T.);
#491=ORIENTED_EDGE('',*,*,#490,.T.);
#492=EDGE_LOOP('',(#485,#487,#489,#491));
#493=FACE_OUTER_BOUND('',#492,.F.);
#494=ADVANCED_FACE('',(#493),#484,.T.);
#495=CARTESIAN_POINT('',(0.E0,5.E-1,0.E0));
#496=DIRECTION('',(0.E0,1.E0,0.E0));
#497=DIRECTION('',(0.E0,0.E0,1.E0));
#498=AXIS2_PLACEMENT_3D('',#495,#496,#497);
#499=TOROIDAL_SURFACE('',#498,1.45E1,5.E-1);
#500=ORIENTED_EDGE('',*,*,#490,.F.);
#502=ORIENTED_EDGE('',*,*,#501,.T.);
#503=ORIENTED_EDGE('',*,*,#486,.T.);
#504=ORIENTED_EDGE('',*,*,#462,.F.);
#505=EDGE_LOOP('',(#500,#502,#503,#504));
#506=FACE_OUTER_BOUND('',#505,.F.);
#507=ADVANCED_FACE('',(#506),#499,.T.);
#508=CARTESIAN_POINT('',(0.E0,1.E0,0.E0));
#509=DIRECTION('',(0.E0,1.E0,0.E0));
#510=DIRECTION('',(0.E0,0.E0,1.E0));
#511=AXIS2_PLACEMENT_3D('',#508,#509,#510);
#512=PLANE('',#511);
#513=ORIENTED_EDGE('',*,*,#488,.F.);
#514=ORIENTED_EDGE('',*,*,#501,.F.);
#515=EDGE_LOOP('',(#513,#514));
#516=FACE_OUTER_BOUND('',#515,.F.);
#518=ORIENTED_EDGE('',*,*,#517,.F.);
#520=ORIENTED_EDGE('',*,*,#519,.F.);
#521=EDGE_LOOP('',(#518,#520));
#522=FACE_BOUND('',#521,.F.);
#523=ADVANCED_FACE('',(#516,#522),#512,.T.);
#524=CARTESIAN_POINT('',(0.E0,7.E-1,0.E0));
#525=DIRECTION('',(0.E0,1.E0,0.E0));
#526=DIRECTION('',(0.E0,0.E0,1.E0));
#527=AXIS2_PLACEMENT_3D('',#524,#525,#526);
#528=TOROIDAL_SURFACE('',#527,2.9E0,3.E-1);
#530=ORIENTED_EDGE('',*,*,#529,.F.);
#531=ORIENTED_EDGE('',*,*,#361,.F.);
#533=ORIENTED_EDGE('',*,*,#532,.T.);
#534=ORIENTED_EDGE('',*,*,#517,.T.);
#535=EDGE_LOOP('',(#530,#531,#533,#534));
#536=FACE_OUTER_BOUND('',#535,.F.);
#537=ADVANCED_FACE('',(#536),#528,.T.);
#538=CARTESIAN_POINT('',(0.E0,7.E-1,0.E0));
#539=DIRECTION('',(0.E0,1.E0,0.E0));
#540=DIRECTION('',(0.E0,0.E0,1.E0));
#541=AXIS2_PLACEMENT_3D('',#538,#539,#540);
#542=TOROIDAL_SURFACE('',#541,2.9E0,3.E-1);
#543=ORIENTED_EDGE('',*,*,#519,.T.);
#544=ORIENTED_EDGE('',*,*,#532,.F.);
#545=ORIENTED_EDGE('',*,*,#345,.F.);
#546=ORIENTED_EDGE('',*,*,#529,.T.);
#547=EDGE_LOOP('',(#543,#544,#545,#546));
#548=FACE_OUTER_BOUND('',#547,.F.);
#549=ADVANCED_FACE('',(#548),#542,.T.);
#550=CLOSED_SHELL('',(#337,#352,#366,#379,#395,#410,#423,#438,#451,#466,#479,
#494,#507,#523,#537,#549));
#551=MANIFOLD_SOLID_BREP('',#550);
#552=FILL_AREA_STYLE_COLOUR('',#28);
#553=FILL_AREA_STYLE('',(#552));
#554=SURFACE_STYLE_FILL_AREA(#553);
#555=SURFACE_SIDE_STYLE('',(#554));
#556=SURFACE_STYLE_USAGE(.BOTH.,#555);
#557=PRESENTATION_STYLE_ASSIGNMENT((#556));
#34=STYLED_ITEM('',(#557),#551);
#558=PRESENTATION_LAYER_ASSIGNMENT('NONE','',(#34));
#560=DIMENSIONAL_EXPONENTS(0.E0,0.E0,0.E0,0.E0,0.E0,0.E0,0.E0);
#562=PLANE_ANGLE_MEASURE_WITH_UNIT(PLANE_ANGLE_MEASURE(1.745329251994E-2),#561);
#563=(CONVERSION_BASED_UNIT('DEGREE',#562)NAMED_UNIT(*)PLANE_ANGLE_UNIT());
#565=UNCERTAINTY_MEASURE_WITH_UNIT(LENGTH_MEASURE(4.24983E-3),#559,'closure',
'Maximum model space distance between geometric entities at asserted connectivities');
#566=(GEOMETRIC_REPRESENTATION_CONTEXT(3)GLOBAL_UNCERTAINTY_ASSIGNED_CONTEXT((
#565))GLOBAL_UNIT_ASSIGNED_CONTEXT((#559,#563,#564))REPRESENTATION_CONTEXT
('ID1','3'));
#568=MECHANICAL_DESIGN_GEOMETRIC_PRESENTATION_REPRESENTATION('',(#43,#51,#58,
#65,#73,#81,#89,#97,#105,#113,#121,#129,#137,#145,#152,#160,#167,#175,#182,#189,
#197,#205,#213,#221,#229,#237,#245,#253,#261,#269,#277,#285,#34),#566);
#569=APPLICATION_CONTEXT(
'CONFIGURATION CONTROLLED 3D DESIGNS OF MECHANICAL PARTS AND ASSEMBLIES');
#570=APPLICATION_PROTOCOL_DEFINITION('international standard',
'config_control_design',1994,#569);
#571=DESIGN_CONTEXT('',#569,'design');
#572=MECHANICAL_CONTEXT('',#569,'mechanical');
#573=PRODUCT('CAD-8509','CAD-8509','NOT SPECIFIED',(#572));
#574=PRODUCT_DEFINITION_FORMATION_WITH_SPECIFIED_SOURCE('1','LAST_VERSION',#573,
.MADE.);
#578=PRODUCT_CATEGORY('part','');
#579=PRODUCT_RELATED_PRODUCT_CATEGORY('detail','',(#573));
#580=PRODUCT_CATEGORY_RELATIONSHIP('','',#578,#579);
#581=SECURITY_CLASSIFICATION_LEVEL('unclassified');
#582=SECURITY_CLASSIFICATION('','',#581);
#583=CC_DESIGN_SECURITY_CLASSIFICATION(#582,(#574));
#584=APPROVAL_STATUS('approved');
#585=APPROVAL(#584,'');
#586=CC_DESIGN_APPROVAL(#585,(#582,#574,#575));
#587=CALENDAR_DATE(122,4,8);
#588=COORDINATED_UNIVERSAL_TIME_OFFSET(2,0,.AHEAD.);
#589=LOCAL_TIME(8,40,5.E0,#588);
#590=DATE_AND_TIME(#587,#589);
#591=APPROVAL_DATE_TIME(#590,#585);
#592=DATE_TIME_ROLE('creation_date');
#593=CC_DESIGN_DATE_AND_TIME_ASSIGNMENT(#590,#592,(#575));
#594=DATE_TIME_ROLE('classification_date');
#595=CC_DESIGN_DATE_AND_TIME_ASSIGNMENT(#590,#594,(#582));
#596=PERSON('UNSPECIFIED','UNSPECIFIED',$,$,$,$);
#597=ORGANIZATION('UNSPECIFIED','UNSPECIFIED','UNSPECIFIED');
#598=PERSON_AND_ORGANIZATION(#596,#597);
#599=APPROVAL_ROLE('approver');
#600=APPROVAL_PERSON_ORGANIZATION(#598,#585,#599);
#601=PERSON_AND_ORGANIZATION_ROLE('creator');
#602=CC_DESIGN_PERSON_AND_ORGANIZATION_ASSIGNMENT(#598,#601,(#574,#575));
#603=PERSON_AND_ORGANIZATION_ROLE('design_supplier');
#604=CC_DESIGN_PERSON_AND_ORGANIZATION_ASSIGNMENT(#598,#603,(#574));
#605=PERSON_AND_ORGANIZATION_ROLE('classification_officer');
#606=CC_DESIGN_PERSON_AND_ORGANIZATION_ASSIGNMENT(#598,#605,(#582));
#607=PERSON_AND_ORGANIZATION_ROLE('design_owner');
#608=CC_DESIGN_PERSON_AND_ORGANIZATION_ASSIGNMENT(#598,#607,(#573));
#1=COLOUR_RGB('',0.E0,0.E0,1.96E-1);
#2=COLOUR_RGB('',0.E0,0.E0,3.14E-1);
#3=COLOUR_RGB('',0.E0,1.96E-1,0.E0);
#4=COLOUR_RGB('',0.E0,3.14E-1,0.E0);
#5=COLOUR_RGB('',7.8E-2,7.8E-2,7.8E-2);
#6=COLOUR_RGB('',1.18E-1,1.18E-1,4.71E-1);
#7=COLOUR_RGB('',1.57E-1,1.57E-1,1.57E-1);
#8=COLOUR_RGB('',1.96E-1,0.E0,0.E0);
#9=COLOUR_RGB('',1.96E-1,0.E0,1.96E-1);
#10=COLOUR_RGB('',1.96E-1,5.88E-1,1.96E-1);
#11=COLOUR_RGB('',2.35E-1,2.35E-1,2.35E-1);
#12=COLOUR_RGB('',2.35E-1,2.35E-1,5.88E-1);
#13=COLOUR_RGB('',3.14E-1,3.14E-1,3.14E-1);
#14=COLOUR_RGB('',3.27543E-1,1.E0,6.33116E-1);
#15=COLOUR_RGB('',3.92E-1,0.E0,0.E0);
#16=COLOUR_RGB('',3.92E-1,0.E0,3.92E-1);
#17=COLOUR_RGB('',3.92E-1,3.92E-1,3.92E-1);
#18=COLOUR_RGB('',3.92E-1,3.92E-1,8.63E-1);
#19=COLOUR_RGB('',3.92E-1,5.88E-1,3.92E-1);
#20=COLOUR_RGB('',3.92E-1,5.88E-1,8.63E-1);
#21=COLOUR_RGB('',5.01961E-1,1.E0,5.01961E-1);
#22=COLOUR_RGB('',5.5E-1,5.6E-1,7.E-1);
#23=COLOUR_RGB('',5.88E-1,5.88E-1,5.88E-1);
#24=COLOUR_RGB('',5.88E-1,7.84E-1,5.88E-1);
#25=COLOUR_RGB('',6.2E-1,3.1E-1,6.5E-1);
#26=COLOUR_RGB('',6.8E-1,8.5E-1,1.E0);
#27=COLOUR_RGB('',6.952E-1,7.426E-1,7.9E-1);
#28=COLOUR_RGB('',7.019607843137E-1,7.333333333333E-1,7.568627450980E-1);
#29=COLOUR_RGB('',9.8E-1,3.92E-1,0.E0);
#30=COLOUR_RGB('',9.8E-1,5.88E-1,0.E0);
#31=COLOUR_RGB('',9.8E-1,7.84E-1,0.E0);
#32=COLOUR_RGB('',1.E0,3.7E-1,3.8E-1);
#33=DRAUGHTING_PRE_DEFINED_COLOUR('white');
#39=CIRCLE('',#38,2.6E0);
#48=CIRCLE('',#47,3.E-1);
#70=CIRCLE('',#69,3.E-1);
#78=CIRCLE('',#77,2.6E0);
#86=CIRCLE('',#85,1.444690604772E1);
#94=CIRCLE('',#93,1.444690604772E1);
#102=CIRCLE('',#101,2.9E0);
#110=CIRCLE('',#109,2.9E0);
#118=CIRCLE('',#117,5.E-1);
#126=CIRCLE('',#125,1.494622081510E1);
#134=CIRCLE('',#133,5.E-1);
#142=CIRCLE('',#141,1.494622081510E1);
#157=CIRCLE('',#156,1.5E1);
#172=CIRCLE('',#171,1.5E1);
#194=CIRCLE('',#193,1.5E1);
#202=CIRCLE('',#201,5.E-1);
#210=CIRCLE('',#209,5.E-1);
#218=CIRCLE('',#217,1.5E1);
#226=CIRCLE('',#225,1.45E1);
#234=CIRCLE('',#233,1.45E1);
#242=CIRCLE('',#241,2.9E0);
#250=CIRCLE('',#249,2.9E0);
#258=CIRCLE('',#257,3.E-1);
#266=CIRCLE('',#265,2.6E0);
#274=CIRCLE('',#273,3.E-1);
#282=CIRCLE('',#281,2.6E0);
#327=EDGE_CURVE('',#311,#310,#39,.T.);
#329=EDGE_CURVE('',#314,#311,#48,.T.);
#331=EDGE_CURVE('',#314,#315,#102,.T.);
#333=EDGE_CURVE('',#315,#310,#70,.T.);
#343=EDGE_CURVE('',#299,#310,#55,.T.);
#345=EDGE_CURVE('',#299,#298,#282,.T.);
#347=EDGE_CURVE('',#298,#311,#62,.T.);
#358=EDGE_CURVE('',#310,#311,#78,.T.);
#361=EDGE_CURVE('',#298,#299,#266,.T.);
#373=EDGE_CURVE('',#315,#314,#110,.T.);
#385=EDGE_CURVE('',#306,#307,#86,.T.);
#387=EDGE_CURVE('',#307,#306,#94,.T.);
#401=EDGE_CURVE('',#289,#307,#118,.T.);
#403=EDGE_CURVE('',#288,#289,#126,.T.);
#405=EDGE_CURVE('',#288,#306,#134,.T.);
#418=EDGE_CURVE('',#289,#288,#142,.T.);
#430=EDGE_CURVE('',#319,#288,#149,.T.);
#432=EDGE_CURVE('',#295,#319,#157,.T.);
#434=EDGE_CURVE('',#295,#289,#164,.T.);
#445=EDGE_CURVE('',#319,#295,#172,.T.);
#457=EDGE_CURVE('',#319,#303,#179,.T.);
#460=EDGE_CURVE('',#295,#317,#186,.T.);
#462=EDGE_CURVE('',#317,#303,#218,.T.);
#472=EDGE_CURVE('',#303,#317,#194,.T.);
#486=EDGE_CURVE('',#302,#303,#202,.T.);
#488=EDGE_CURVE('',#302,#321,#226,.T.);
#490=EDGE_CURVE('',#321,#317,#210,.T.);
#501=EDGE_CURVE('',#321,#302,#234,.T.);
#517=EDGE_CURVE('',#292,#293,#242,.T.);
#519=EDGE_CURVE('',#293,#292,#250,.T.);
#529=EDGE_CURVE('',#299,#293,#258,.T.);
#532=EDGE_CURVE('',#298,#292,#274,.T.);
#559=(LENGTH_UNIT()NAMED_UNIT(*)SI_UNIT(.MILLI.,.METRE.));
#561=(NAMED_UNIT(*)PLANE_ANGLE_UNIT()SI_UNIT($,.RADIAN.));
#564=(NAMED_UNIT(*)SI_UNIT($,.STERADIAN.)SOLID_ANGLE_UNIT());
#567=ADVANCED_BREP_SHAPE_REPRESENTATION('',(#551),#566);
#575=PRODUCT_DEFINITION('design','',#574,#571);
#576=PRODUCT_DEFINITION_SHAPE('','SHAPE FOR CAD-8509.',#575);
#577=SHAPE_DEFINITION_REPRESENTATION(#576,#567);
ENDSEC;
END-ISO-10303-21;
