ISO-10303-21;
HEADER;
FILE_DESCRIPTION((''),'2;1');
FILE_NAME('CAD-8511','2022-08-04T08:43:06',('creinig-se'),(''),
'CREO PARAMETRIC BY PTC INC, 2019292','CREO PARAMETRIC BY PTC INC, 2019292','');
FILE_SCHEMA(('CONFIG_CONTROL_DESIGN','SHAPE_APPEARANCE_LAYERS_GROUPS'));
ENDSEC;
DATA;
#35=CARTESIAN_POINT('',(0.E0,1.5E0,0.E0));
#36=DIRECTION('',(0.E0,1.E0,0.E0));
#37=DIRECTION('',(0.E0,0.E0,1.E0));
#38=AXIS2_PLACEMENT_3D('',#35,#36,#37);
#40=DRAUGHTING_PRE_DEFINED_CURVE_FONT('continuous');
#41=CURVE_STYLE('',#40,POSITIVE_LENGTH_MEASURE(2.E-2),#28);
#42=PRESENTATION_STYLE_ASSIGNMENT((#41));
#43=STYLED_ITEM('',(#42),#39);
#44=CARTESIAN_POINT('',(0.E0,1.5E0,0.E0));
#45=DIRECTION('',(0.E0,1.E0,0.E0));
#46=DIRECTION('',(0.E0,0.E0,-1.E0));
#47=AXIS2_PLACEMENT_3D('',#44,#45,#46);
#49=CURVE_STYLE('',#40,POSITIVE_LENGTH_MEASURE(2.E-2),#28);
#50=PRESENTATION_STYLE_ASSIGNMENT((#49));
#51=STYLED_ITEM('',(#50),#48);
#52=CARTESIAN_POINT('',(0.E0,1.5E0,-4.7E0));
#53=DIRECTION('',(1.E0,0.E0,0.E0));
#54=DIRECTION('',(0.E0,0.E0,-1.E0));
#55=AXIS2_PLACEMENT_3D('',#52,#53,#54);
#57=CURVE_STYLE('',#40,POSITIVE_LENGTH_MEASURE(2.E-2),#28);
#58=PRESENTATION_STYLE_ASSIGNMENT((#57));
#59=STYLED_ITEM('',(#58),#56);
#60=CARTESIAN_POINT('',(0.E0,1.5E0,4.7E0));
#61=DIRECTION('',(-1.E0,0.E0,0.E0));
#62=DIRECTION('',(0.E0,0.E0,1.E0));
#63=AXIS2_PLACEMENT_3D('',#60,#61,#62);
#65=CURVE_STYLE('',#40,POSITIVE_LENGTH_MEASURE(2.E-2),#28);
#66=PRESENTATION_STYLE_ASSIGNMENT((#65));
#67=STYLED_ITEM('',(#66),#64);
#68=DIRECTION('',(0.E0,-1.E0,0.E0));
#69=VECTOR('',#68,1.2E0);
#70=CARTESIAN_POINT('',(0.E0,1.5E0,5.E0));
#71=LINE('',#70,#69);
#72=CURVE_STYLE('',#40,POSITIVE_LENGTH_MEASURE(2.E-2),#28);
#73=PRESENTATION_STYLE_ASSIGNMENT((#72));
#74=STYLED_ITEM('',(#73),#71);
#75=DIRECTION('',(0.E0,-1.E0,0.E0));
#76=VECTOR('',#75,1.2E0);
#77=CARTESIAN_POINT('',(0.E0,1.5E0,-5.E0));
#78=LINE('',#77,#76);
#79=CURVE_STYLE('',#40,POSITIVE_LENGTH_MEASURE(2.E-2),#28);
#80=PRESENTATION_STYLE_ASSIGNMENT((#79));
#81=STYLED_ITEM('',(#80),#78);
#82=CARTESIAN_POINT('',(0.E0,3.E-1,0.E0));
#83=DIRECTION('',(0.E0,-1.E0,0.E0));
#84=DIRECTION('',(0.E0,0.E0,1.E0));
#85=AXIS2_PLACEMENT_3D('',#82,#83,#84);
#87=CURVE_STYLE('',#40,POSITIVE_LENGTH_MEASURE(2.E-2),#28);
#88=PRESENTATION_STYLE_ASSIGNMENT((#87));
#89=STYLED_ITEM('',(#88),#86);
#90=CARTESIAN_POINT('',(0.E0,3.E-1,4.7E0));
#91=DIRECTION('',(-1.E0,0.E0,0.E0));
#92=DIRECTION('',(0.E0,-7.071067811865E-1,7.071067811865E-1));
#93=AXIS2_PLACEMENT_3D('',#90,#91,#92);
#95=CURVE_STYLE('',#40,POSITIVE_LENGTH_MEASURE(2.E-2),#28);
#96=PRESENTATION_STYLE_ASSIGNMENT((#95));
#97=STYLED_ITEM('',(#96),#94);
#98=CARTESIAN_POINT('',(0.E0,8.786796564404E-2,0.E0));
#99=DIRECTION('',(0.E0,1.E0,0.E0));
#100=DIRECTION('',(0.E0,0.E0,-1.E0));
#101=AXIS2_PLACEMENT_3D('',#98,#99,#100);
#103=CURVE_STYLE('',#40,POSITIVE_LENGTH_MEASURE(2.E-2),#28);
#104=PRESENTATION_STYLE_ASSIGNMENT((#103));
#105=STYLED_ITEM('',(#104),#102);
#106=CARTESIAN_POINT('',(0.E0,3.E-1,-4.7E0));
#107=DIRECTION('',(1.E0,0.E0,0.E0));
#108=DIRECTION('',(0.E0,-7.071067811865E-1,-7.071067811865E-1));
#109=AXIS2_PLACEMENT_3D('',#106,#107,#108);
#111=CURVE_STYLE('',#40,POSITIVE_LENGTH_MEASURE(2.E-2),#28);
#112=PRESENTATION_STYLE_ASSIGNMENT((#111));
#113=STYLED_ITEM('',(#112),#110);
#114=CARTESIAN_POINT('',(0.E0,3.E-1,0.E0));
#115=DIRECTION('',(0.E0,-1.E0,0.E0));
#116=DIRECTION('',(0.E0,0.E0,-1.E0));
#117=AXIS2_PLACEMENT_3D('',#114,#115,#116);
#119=CURVE_STYLE('',#40,POSITIVE_LENGTH_MEASURE(2.E-2),#28);
#120=PRESENTATION_STYLE_ASSIGNMENT((#119));
#121=STYLED_ITEM('',(#120),#118);
#122=CARTESIAN_POINT('',(0.E0,8.786796564404E-2,0.E0));
#123=DIRECTION('',(0.E0,1.E0,0.E0));
#124=DIRECTION('',(0.E0,0.E0,1.E0));
#125=AXIS2_PLACEMENT_3D('',#122,#123,#124);
#127=CURVE_STYLE('',#40,POSITIVE_LENGTH_MEASURE(2.E-2),#28);
#128=PRESENTATION_STYLE_ASSIGNMENT((#127));
#129=STYLED_ITEM('',(#128),#126);
#130=CARTESIAN_POINT('',(0.E0,0.E0,0.E0));
#131=DIRECTION('',(0.E0,-1.E0,0.E0));
#132=DIRECTION('',(0.E0,0.E0,1.E0));
#133=AXIS2_PLACEMENT_3D('',#130,#131,#132);
#135=CURVE_STYLE('',#40,POSITIVE_LENGTH_MEASURE(2.E-2),#28);
#136=PRESENTATION_STYLE_ASSIGNMENT((#135));
#137=STYLED_ITEM('',(#136),#134);
#138=CARTESIAN_POINT('',(0.E0,0.E0,0.E0));
#139=DIRECTION('',(0.E0,-1.E0,0.E0));
#140=DIRECTION('',(0.E0,0.E0,-1.E0));
#141=AXIS2_PLACEMENT_3D('',#138,#139,#140);
#143=CURVE_STYLE('',#40,POSITIVE_LENGTH_MEASURE(2.E-2),#28);
#144=PRESENTATION_STYLE_ASSIGNMENT((#143));
#145=STYLED_ITEM('',(#144),#142);
#146=CARTESIAN_POINT('',(0.E0,3.E-1,-4.7E0));
#147=DIRECTION('',(1.E0,0.E0,0.E0));
#148=DIRECTION('',(0.E0,-1.E0,0.E0));
#149=AXIS2_PLACEMENT_3D('',#146,#147,#148);
#151=CURVE_STYLE('',#40,POSITIVE_LENGTH_MEASURE(2.E-2),#28);
#152=PRESENTATION_STYLE_ASSIGNMENT((#151));
#153=STYLED_ITEM('',(#152),#150);
#154=CARTESIAN_POINT('',(0.E0,3.E-1,4.7E0));
#155=DIRECTION('',(-1.E0,0.E0,0.E0));
#156=DIRECTION('',(0.E0,-1.E0,0.E0));
#157=AXIS2_PLACEMENT_3D('',#154,#155,#156);
#159=CURVE_STYLE('',#40,POSITIVE_LENGTH_MEASURE(2.E-2),#28);
#160=PRESENTATION_STYLE_ASSIGNMENT((#159));
#161=STYLED_ITEM('',(#160),#158);
#162=CARTESIAN_POINT('',(0.E0,1.5E0,4.7E0));
#163=DIRECTION('',(-1.E0,0.E0,0.E0));
#164=DIRECTION('',(0.E0,7.071067811865E-1,7.071067811865E-1));
#165=AXIS2_PLACEMENT_3D('',#162,#163,#164);
#167=CURVE_STYLE('',#40,POSITIVE_LENGTH_MEASURE(2.E-2),#28);
#168=PRESENTATION_STYLE_ASSIGNMENT((#167));
#169=STYLED_ITEM('',(#168),#166);
#170=CARTESIAN_POINT('',(0.E0,1.712132034356E0,0.E0));
#171=DIRECTION('',(0.E0,1.E0,0.E0));
#172=DIRECTION('',(0.E0,0.E0,-1.E0));
#173=AXIS2_PLACEMENT_3D('',#170,#171,#172);
#175=CURVE_STYLE('',#40,POSITIVE_LENGTH_MEASURE(2.E-2),#28);
#176=PRESENTATION_STYLE_ASSIGNMENT((#175));
#177=STYLED_ITEM('',(#176),#174);
#178=CARTESIAN_POINT('',(0.E0,1.5E0,-4.7E0));
#179=DIRECTION('',(1.E0,0.E0,0.E0));
#180=DIRECTION('',(0.E0,7.071067811865E-1,-7.071067811865E-1));
#181=AXIS2_PLACEMENT_3D('',#178,#179,#180);
#183=CURVE_STYLE('',#40,POSITIVE_LENGTH_MEASURE(2.E-2),#28);
#184=PRESENTATION_STYLE_ASSIGNMENT((#183));
#185=STYLED_ITEM('',(#184),#182);
#186=CARTESIAN_POINT('',(0.E0,1.8E0,0.E0));
#187=DIRECTION('',(0.E0,1.E0,0.E0));
#188=DIRECTION('',(0.E0,0.E0,1.E0));
#189=AXIS2_PLACEMENT_3D('',#186,#187,#188);
#191=CURVE_STYLE('',#40,POSITIVE_LENGTH_MEASURE(2.E-2),#28);
#192=PRESENTATION_STYLE_ASSIGNMENT((#191));
#193=STYLED_ITEM('',(#192),#190);
#194=CARTESIAN_POINT('',(0.E0,1.8E0,0.E0));
#195=DIRECTION('',(0.E0,1.E0,0.E0));
#196=DIRECTION('',(0.E0,0.E0,-1.E0));
#197=AXIS2_PLACEMENT_3D('',#194,#195,#196);
#199=CURVE_STYLE('',#40,POSITIVE_LENGTH_MEASURE(2.E-2),#28);
#200=PRESENTATION_STYLE_ASSIGNMENT((#199));
#201=STYLED_ITEM('',(#200),#198);
#202=CARTESIAN_POINT('',(0.E0,1.712132034356E0,0.E0));
#203=DIRECTION('',(0.E0,1.E0,0.E0));
#204=DIRECTION('',(0.E0,0.E0,1.E0));
#205=AXIS2_PLACEMENT_3D('',#202,#203,#204);
#207=CURVE_STYLE('',#40,POSITIVE_LENGTH_MEASURE(2.E-2),#28);
#208=PRESENTATION_STYLE_ASSIGNMENT((#207));
#209=STYLED_ITEM('',(#208),#206);
#210=CARTESIAN_POINT('',(0.E0,1.5E0,-5.E0));
#211=CARTESIAN_POINT('',(0.E0,3.E-1,-5.E0));
#212=VERTEX_POINT('',#210);
#213=VERTEX_POINT('',#211);
#214=CARTESIAN_POINT('',(0.E0,1.5E0,5.E0));
#215=CARTESIAN_POINT('',(0.E0,3.E-1,5.E0));
#216=VERTEX_POINT('',#214);
#217=VERTEX_POINT('',#215);
#218=CARTESIAN_POINT('',(0.E0,0.E0,4.7E0));
#219=CARTESIAN_POINT('',(0.E0,8.786796564404E-2,4.912132034356E0));
#220=VERTEX_POINT('',#218);
#221=VERTEX_POINT('',#219);
#222=CARTESIAN_POINT('',(0.E0,8.786796564404E-2,-4.912132034356E0));
#223=VERTEX_POINT('',#222);
#224=CARTESIAN_POINT('',(0.E0,0.E0,-4.7E0));
#225=VERTEX_POINT('',#224);
#226=CARTESIAN_POINT('',(0.E0,1.712132034356E0,4.912132034356E0));
#227=VERTEX_POINT('',#226);
#228=CARTESIAN_POINT('',(0.E0,1.712132034356E0,-4.912132034356E0));
#229=VERTEX_POINT('',#228);
#230=CARTESIAN_POINT('',(0.E0,1.8E0,-4.7E0));
#231=VERTEX_POINT('',#230);
#232=CARTESIAN_POINT('',(0.E0,1.8E0,4.7E0));
#233=VERTEX_POINT('',#232);
#234=CARTESIAN_POINT('',(0.E0,1.8E0,0.E0));
#235=DIRECTION('',(0.E0,-1.E0,0.E0));
#236=DIRECTION('',(0.E0,0.E0,-1.E0));
#237=AXIS2_PLACEMENT_3D('',#234,#235,#236);
#238=CYLINDRICAL_SURFACE('',#237,5.E0);
#240=ORIENTED_EDGE('',*,*,#239,.T.);
#242=ORIENTED_EDGE('',*,*,#241,.T.);
#244=ORIENTED_EDGE('',*,*,#243,.T.);
#246=ORIENTED_EDGE('',*,*,#245,.F.);
#247=EDGE_LOOP('',(#240,#242,#244,#246));
#248=FACE_OUTER_BOUND('',#247,.F.);
#249=ADVANCED_FACE('',(#248),#238,.T.);
#250=CARTESIAN_POINT('',(0.E0,1.5E0,0.E0));
#251=DIRECTION('',(0.E0,1.E0,0.E0));
#252=DIRECTION('',(0.E0,0.E0,1.E0));
#253=AXIS2_PLACEMENT_3D('',#250,#251,#252);
#254=TOROIDAL_SURFACE('',#253,4.7E0,3.E-1);
#255=ORIENTED_EDGE('',*,*,#239,.F.);
#257=ORIENTED_EDGE('',*,*,#256,.T.);
#259=ORIENTED_EDGE('',*,*,#258,.T.);
#261=ORIENTED_EDGE('',*,*,#260,.F.);
#262=EDGE_LOOP('',(#255,#257,#259,#261));
#263=FACE_OUTER_BOUND('',#262,.F.);
#264=ADVANCED_FACE('',(#263),#254,.T.);
#265=CARTESIAN_POINT('',(0.E0,1.5E0,0.E0));
#266=DIRECTION('',(0.E0,1.E0,0.E0));
#267=DIRECTION('',(0.E0,0.E0,1.E0));
#268=AXIS2_PLACEMENT_3D('',#265,#266,#267);
#269=TOROIDAL_SURFACE('',#268,4.7E0,3.E-1);
#271=ORIENTED_EDGE('',*,*,#270,.F.);
#272=ORIENTED_EDGE('',*,*,#260,.T.);
#274=ORIENTED_EDGE('',*,*,#273,.T.);
#275=ORIENTED_EDGE('',*,*,#256,.F.);
#276=EDGE_LOOP('',(#271,#272,#274,#275));
#277=FACE_OUTER_BOUND('',#276,.F.);
#278=ADVANCED_FACE('',(#277),#269,.T.);
#279=CARTESIAN_POINT('',(0.E0,1.8E0,0.E0));
#280=DIRECTION('',(0.E0,-1.E0,0.E0));
#281=DIRECTION('',(0.E0,0.E0,-1.E0));
#282=AXIS2_PLACEMENT_3D('',#279,#280,#281);
#283=CYLINDRICAL_SURFACE('',#282,5.E0);
#284=ORIENTED_EDGE('',*,*,#270,.T.);
#285=ORIENTED_EDGE('',*,*,#245,.T.);
#287=ORIENTED_EDGE('',*,*,#286,.T.);
#288=ORIENTED_EDGE('',*,*,#241,.F.);
#289=EDGE_LOOP('',(#284,#285,#287,#288));
#290=FACE_OUTER_BOUND('',#289,.F.);
#291=ADVANCED_FACE('',(#290),#283,.T.);
#292=CARTESIAN_POINT('',(0.E0,3.E-1,0.E0));
#293=DIRECTION('',(0.E0,1.E0,0.E0));
#294=DIRECTION('',(0.E0,0.E0,1.E0));
#295=AXIS2_PLACEMENT_3D('',#292,#293,#294);
#296=TOROIDAL_SURFACE('',#295,4.7E0,3.E-1);
#297=ORIENTED_EDGE('',*,*,#286,.F.);
#299=ORIENTED_EDGE('',*,*,#298,.F.);
#301=ORIENTED_EDGE('',*,*,#300,.F.);
#303=ORIENTED_EDGE('',*,*,#302,.T.);
#304=EDGE_LOOP('',(#297,#299,#301,#303));
#305=FACE_OUTER_BOUND('',#304,.F.);
#306=ADVANCED_FACE('',(#305),#296,.T.);
#307=CARTESIAN_POINT('',(0.E0,3.E-1,0.E0));
#308=DIRECTION('',(0.E0,1.E0,0.E0));
#309=DIRECTION('',(0.E0,0.E0,1.E0));
#310=AXIS2_PLACEMENT_3D('',#307,#308,#309);
#311=TOROIDAL_SURFACE('',#310,4.7E0,3.E-1);
#312=ORIENTED_EDGE('',*,*,#243,.F.);
#313=ORIENTED_EDGE('',*,*,#302,.F.);
#315=ORIENTED_EDGE('',*,*,#314,.F.);
#316=ORIENTED_EDGE('',*,*,#298,.T.);
#317=EDGE_LOOP('',(#312,#313,#315,#316));
#318=FACE_OUTER_BOUND('',#317,.F.);
#319=ADVANCED_FACE('',(#318),#311,.T.);
#320=CARTESIAN_POINT('',(0.E0,3.E-1,0.E0));
#321=DIRECTION('',(0.E0,1.E0,0.E0));
#322=DIRECTION('',(0.E0,0.E0,1.E0));
#323=AXIS2_PLACEMENT_3D('',#320,#321,#322);
#324=TOROIDAL_SURFACE('',#323,4.7E0,3.E-1);
#326=ORIENTED_EDGE('',*,*,#325,.T.);
#328=ORIENTED_EDGE('',*,*,#327,.T.);
#329=ORIENTED_EDGE('',*,*,#314,.T.);
#331=ORIENTED_EDGE('',*,*,#330,.F.);
#332=EDGE_LOOP('',(#326,#328,#329,#331));
#333=FACE_OUTER_BOUND('',#332,.F.);
#334=ADVANCED_FACE('',(#333),#324,.T.);
#335=CARTESIAN_POINT('',(0.E0,0.E0,0.E0));
#336=DIRECTION('',(0.E0,1.E0,0.E0));
#337=DIRECTION('',(0.E0,0.E0,1.E0));
#338=AXIS2_PLACEMENT_3D('',#335,#336,#337);
#339=PLANE('',#338);
#341=ORIENTED_EDGE('',*,*,#340,.F.);
#342=ORIENTED_EDGE('',*,*,#325,.F.);
#343=EDGE_LOOP('',(#341,#342));
#344=FACE_OUTER_BOUND('',#343,.F.);
#345=ADVANCED_FACE('',(#344),#339,.F.);
#346=CARTESIAN_POINT('',(0.E0,3.E-1,0.E0));
#347=DIRECTION('',(0.E0,1.E0,0.E0));
#348=DIRECTION('',(0.E0,0.E0,1.E0));
#349=AXIS2_PLACEMENT_3D('',#346,#347,#348);
#350=TOROIDAL_SURFACE('',#349,4.7E0,3.E-1);
#351=ORIENTED_EDGE('',*,*,#340,.T.);
#352=ORIENTED_EDGE('',*,*,#330,.T.);
#353=ORIENTED_EDGE('',*,*,#300,.T.);
#354=ORIENTED_EDGE('',*,*,#327,.F.);
#355=EDGE_LOOP('',(#351,#352,#353,#354));
#356=FACE_OUTER_BOUND('',#355,.F.);
#357=ADVANCED_FACE('',(#356),#350,.T.);
#358=CARTESIAN_POINT('',(0.E0,1.5E0,0.E0));
#359=DIRECTION('',(0.E0,1.E0,0.E0));
#360=DIRECTION('',(0.E0,0.E0,1.E0));
#361=AXIS2_PLACEMENT_3D('',#358,#359,#360);
#362=TOROIDAL_SURFACE('',#361,4.7E0,3.E-1);
#364=ORIENTED_EDGE('',*,*,#363,.T.);
#366=ORIENTED_EDGE('',*,*,#365,.F.);
#367=ORIENTED_EDGE('',*,*,#273,.F.);
#369=ORIENTED_EDGE('',*,*,#368,.T.);
#370=EDGE_LOOP('',(#364,#366,#367,#369));
#371=FACE_OUTER_BOUND('',#370,.F.);
#372=ADVANCED_FACE('',(#371),#362,.T.);
#373=CARTESIAN_POINT('',(0.E0,1.8E0,0.E0));
#374=DIRECTION('',(0.E0,1.E0,0.E0));
#375=DIRECTION('',(0.E0,0.E0,1.E0));
#376=AXIS2_PLACEMENT_3D('',#373,#374,#375);
#377=PLANE('',#376);
#379=ORIENTED_EDGE('',*,*,#378,.F.);
#380=ORIENTED_EDGE('',*,*,#363,.F.);
#381=EDGE_LOOP('',(#379,#380));
#382=FACE_OUTER_BOUND('',#381,.F.);
#383=ADVANCED_FACE('',(#382),#377,.T.);
#384=CARTESIAN_POINT('',(0.E0,1.5E0,0.E0));
#385=DIRECTION('',(0.E0,1.E0,0.E0));
#386=DIRECTION('',(0.E0,0.E0,1.E0));
#387=AXIS2_PLACEMENT_3D('',#384,#385,#386);
#388=TOROIDAL_SURFACE('',#387,4.7E0,3.E-1);
#389=ORIENTED_EDGE('',*,*,#378,.T.);
#390=ORIENTED_EDGE('',*,*,#368,.F.);
#391=ORIENTED_EDGE('',*,*,#258,.F.);
#392=ORIENTED_EDGE('',*,*,#365,.T.);
#393=EDGE_LOOP('',(#389,#390,#391,#392));
#394=FACE_OUTER_BOUND('',#393,.F.);
#395=ADVANCED_FACE('',(#394),#388,.T.);
#396=CLOSED_SHELL('',(#249,#264,#278,#291,#306,#319,#334,#345,#357,#372,#383,
#395));
#397=MANIFOLD_SOLID_BREP('',#396);
#398=FILL_AREA_STYLE_COLOUR('',#28);
#399=FILL_AREA_STYLE('',(#398));
#400=SURFACE_STYLE_FILL_AREA(#399);
#401=SURFACE_SIDE_STYLE('',(#400));
#402=SURFACE_STYLE_USAGE(.BOTH.,#401);
#403=PRESENTATION_STYLE_ASSIGNMENT((#402));
#34=STYLED_ITEM('',(#403),#397);
#404=PRESENTATION_LAYER_ASSIGNMENT('SHELL','',(#34));
#406=DIMENSIONAL_EXPONENTS(0.E0,0.E0,0.E0,0.E0,0.E0,0.E0,0.E0);
#408=PLANE_ANGLE_MEASURE_WITH_UNIT(PLANE_ANGLE_MEASURE(1.745329251994E-2),#407);
#409=(CONVERSION_BASED_UNIT('DEGREE',#408)NAMED_UNIT(*)PLANE_ANGLE_UNIT());
#411=UNCERTAINTY_MEASURE_WITH_UNIT(LENGTH_MEASURE(1.425565646069E-3),#405,
'closure',
'Maximum model space distance between geometric entities at asserted connectivities');
#412=(GEOMETRIC_REPRESENTATION_CONTEXT(3)GLOBAL_UNCERTAINTY_ASSIGNED_CONTEXT((
#411))GLOBAL_UNIT_ASSIGNED_CONTEXT((#405,#409,#410))REPRESENTATION_CONTEXT
('ID1','3'));
#414=MECHANICAL_DESIGN_GEOMETRIC_PRESENTATION_REPRESENTATION('',(#43,#51,#59,
#67,#74,#81,#89,#97,#105,#113,#121,#129,#137,#145,#153,#161,#169,#177,#185,#193,
#201,#209,#34),#412);
#415=APPLICATION_CONTEXT(
'CONFIGURATION CONTROLLED 3D DESIGNS OF MECHANICAL PARTS AND ASSEMBLIES');
#416=APPLICATION_PROTOCOL_DEFINITION('international standard',
'config_control_design',1994,#415);
#417=DESIGN_CONTEXT('',#415,'design');
#418=MECHANICAL_CONTEXT('',#415,'mechanical');
#419=PRODUCT('CAD-8511','CAD-8511','NOT SPECIFIED',(#418));
#420=PRODUCT_DEFINITION_FORMATION_WITH_SPECIFIED_SOURCE('1','LAST_VERSION',#419,
.MADE.);
#424=PRODUCT_CATEGORY('part','');
#425=PRODUCT_RELATED_PRODUCT_CATEGORY('detail','',(#419));
#426=PRODUCT_CATEGORY_RELATIONSHIP('','',#424,#425);
#427=SECURITY_CLASSIFICATION_LEVEL('unclassified');
#428=SECURITY_CLASSIFICATION('','',#427);
#429=CC_DESIGN_SECURITY_CLASSIFICATION(#428,(#420));
#430=APPROVAL_STATUS('approved');
#431=APPROVAL(#430,'');
#432=CC_DESIGN_APPROVAL(#431,(#428,#420,#421));
#433=CALENDAR_DATE(122,4,8);
#434=COORDINATED_UNIVERSAL_TIME_OFFSET(2,0,.AHEAD.);
#435=LOCAL_TIME(8,43,6.E0,#434);
#436=DATE_AND_TIME(#433,#435);
#437=APPROVAL_DATE_TIME(#436,#431);
#438=DATE_TIME_ROLE('creation_date');
#439=CC_DESIGN_DATE_AND_TIME_ASSIGNMENT(#436,#438,(#421));
#440=DATE_TIME_ROLE('classification_date');
#441=CC_DESIGN_DATE_AND_TIME_ASSIGNMENT(#436,#440,(#428));
#442=PERSON('UNSPECIFIED','UNSPECIFIED',$,$,$,$);
#443=ORGANIZATION('UNSPECIFIED','UNSPECIFIED','UNSPECIFIED');
#444=PERSON_AND_ORGANIZATION(#442,#443);
#445=APPROVAL_ROLE('approver');
#446=APPROVAL_PERSON_ORGANIZATION(#444,#431,#445);
#447=PERSON_AND_ORGANIZATION_ROLE('creator');
#448=CC_DESIGN_PERSON_AND_ORGANIZATION_ASSIGNMENT(#444,#447,(#420,#421));
#449=PERSON_AND_ORGANIZATION_ROLE('design_supplier');
#450=CC_DESIGN_PERSON_AND_ORGANIZATION_ASSIGNMENT(#444,#449,(#420));
#451=PERSON_AND_ORGANIZATION_ROLE('classification_officer');
#452=CC_DESIGN_PERSON_AND_ORGANIZATION_ASSIGNMENT(#444,#451,(#428));
#453=PERSON_AND_ORGANIZATION_ROLE('design_owner');
#454=CC_DESIGN_PERSON_AND_ORGANIZATION_ASSIGNMENT(#444,#453,(#419));
#1=COLOUR_RGB('',0.E0,0.E0,1.96E-1);
#2=COLOUR_RGB('',0.E0,0.E0,3.14E-1);
#3=COLOUR_RGB('',0.E0,1.96E-1,0.E0);
#4=COLOUR_RGB('',0.E0,3.14E-1,0.E0);
#5=COLOUR_RGB('',7.8E-2,7.8E-2,7.8E-2);
#6=COLOUR_RGB('',1.18E-1,1.18E-1,4.71E-1);
#7=COLOUR_RGB('',1.57E-1,1.57E-1,1.57E-1);
#8=COLOUR_RGB('',1.96E-1,0.E0,0.E0);
#9=COLOUR_RGB('',1.96E-1,0.E0,1.96E-1);
#10=COLOUR_RGB('',1.96E-1,5.88E-1,1.96E-1);
#11=COLOUR_RGB('',2.35E-1,2.35E-1,2.35E-1);
#12=COLOUR_RGB('',2.35E-1,2.35E-1,5.88E-1);
#13=COLOUR_RGB('',3.14E-1,3.14E-1,3.14E-1);
#14=COLOUR_RGB('',3.27543E-1,1.E0,6.33116E-1);
#15=COLOUR_RGB('',3.92E-1,0.E0,0.E0);
#16=COLOUR_RGB('',3.92E-1,0.E0,3.92E-1);
#17=COLOUR_RGB('',3.92E-1,3.92E-1,3.92E-1);
#18=COLOUR_RGB('',3.92E-1,3.92E-1,8.63E-1);
#19=COLOUR_RGB('',3.92E-1,5.88E-1,3.92E-1);
#20=COLOUR_RGB('',3.92E-1,5.88E-1,8.63E-1);
#21=COLOUR_RGB('',5.01961E-1,1.E0,5.01961E-1);
#22=COLOUR_RGB('',5.5E-1,5.6E-1,7.E-1);
#23=COLOUR_RGB('',5.88E-1,5.88E-1,5.88E-1);
#24=COLOUR_RGB('',5.88E-1,7.84E-1,5.88E-1);
#25=COLOUR_RGB('',6.2E-1,3.1E-1,6.5E-1);
#26=COLOUR_RGB('',6.8E-1,8.5E-1,1.E0);
#27=COLOUR_RGB('',6.952E-1,7.426E-1,7.9E-1);
#28=COLOUR_RGB('',7.019607843137E-1,7.333333333333E-1,7.568627450980E-1);
#29=COLOUR_RGB('',9.8E-1,3.92E-1,0.E0);
#30=COLOUR_RGB('',9.8E-1,5.88E-1,0.E0);
#31=COLOUR_RGB('',9.8E-1,7.84E-1,0.E0);
#32=COLOUR_RGB('',1.E0,3.7E-1,3.8E-1);
#33=DRAUGHTING_PRE_DEFINED_COLOUR('white');
#39=CIRCLE('',#38,5.E0);
#48=CIRCLE('',#47,5.E0);
#56=CIRCLE('',#55,3.E-1);
#64=CIRCLE('',#63,3.E-1);
#86=CIRCLE('',#85,5.E0);
#94=CIRCLE('',#93,3.E-1);
#102=CIRCLE('',#101,4.912132034356E0);
#110=CIRCLE('',#109,3.E-1);
#118=CIRCLE('',#117,5.E0);
#126=CIRCLE('',#125,4.912132034356E0);
#134=CIRCLE('',#133,4.7E0);
#142=CIRCLE('',#141,4.7E0);
#150=CIRCLE('',#149,3.E-1);
#158=CIRCLE('',#157,3.E-1);
#166=CIRCLE('',#165,3.E-1);
#174=CIRCLE('',#173,4.912132034356E0);
#182=CIRCLE('',#181,3.E-1);
#190=CIRCLE('',#189,4.7E0);
#198=CIRCLE('',#197,4.7E0);
#206=CIRCLE('',#205,4.912132034356E0);
#239=EDGE_CURVE('',#216,#212,#39,.T.);
#241=EDGE_CURVE('',#212,#213,#78,.T.);
#243=EDGE_CURVE('',#213,#217,#118,.T.);
#245=EDGE_CURVE('',#216,#217,#71,.T.);
#256=EDGE_CURVE('',#216,#227,#64,.T.);
#258=EDGE_CURVE('',#227,#229,#206,.T.);
#260=EDGE_CURVE('',#212,#229,#56,.T.);
#270=EDGE_CURVE('',#212,#216,#48,.T.);
#273=EDGE_CURVE('',#229,#227,#174,.T.);
#286=EDGE_CURVE('',#217,#213,#86,.T.);
#298=EDGE_CURVE('',#221,#217,#94,.T.);
#300=EDGE_CURVE('',#223,#221,#102,.T.);
#302=EDGE_CURVE('',#223,#213,#110,.T.);
#314=EDGE_CURVE('',#221,#223,#126,.T.);
#325=EDGE_CURVE('',#225,#220,#142,.T.);
#327=EDGE_CURVE('',#220,#221,#158,.T.);
#330=EDGE_CURVE('',#225,#223,#150,.T.);
#340=EDGE_CURVE('',#220,#225,#134,.T.);
#363=EDGE_CURVE('',#231,#233,#198,.T.);
#365=EDGE_CURVE('',#227,#233,#166,.T.);
#368=EDGE_CURVE('',#229,#231,#182,.T.);
#378=EDGE_CURVE('',#233,#231,#190,.T.);
#405=(LENGTH_UNIT()NAMED_UNIT(*)SI_UNIT(.MILLI.,.METRE.));
#407=(NAMED_UNIT(*)PLANE_ANGLE_UNIT()SI_UNIT($,.RADIAN.));
#410=(NAMED_UNIT(*)SI_UNIT($,.STERADIAN.)SOLID_ANGLE_UNIT());
#413=ADVANCED_BREP_SHAPE_REPRESENTATION('',(#397),#412);
#421=PRODUCT_DEFINITION('design','',#420,#417);
#422=PRODUCT_DEFINITION_SHAPE('','SHAPE FOR CAD-8511.',#421);
#423=SHAPE_DEFINITION_REPRESENTATION(#422,#413);
ENDSEC;
END-ISO-10303-21;
