ISO-10303-21;
HEADER;
FILE_DESCRIPTION((''),'2;1');
FILE_NAME('CAD-8512','2022-08-04T08:44:35',('creinig-se'),(''),
'CREO PARAMETRIC BY PTC INC, 2019292','CREO PARAMETRIC BY PTC INC, 2019292','');
FILE_SCHEMA(('CONFIG_CONTROL_DESIGN','SHAPE_APPEARANCE_LAYERS_GROUPS'));
ENDSEC;
DATA;
#35=CARTESIAN_POINT('',(0.E0,0.E0,6.955665024631E0));
#36=DIRECTION('',(0.E0,0.E0,-1.E0));
#37=DIRECTION('',(-1.E0,0.E0,0.E0));
#38=AXIS2_PLACEMENT_3D('',#35,#36,#37);
#40=DRAUGHTING_PRE_DEFINED_CURVE_FONT('continuous');
#41=CURVE_STYLE('',#40,POSITIVE_LENGTH_MEASURE(2.E-2),#28);
#42=PRESENTATION_STYLE_ASSIGNMENT((#41));
#43=STYLED_ITEM('',(#42),#39);
#44=CARTESIAN_POINT('',(0.E0,0.E0,6.955665024631E0));
#45=DIRECTION('',(0.E0,0.E0,-1.E0));
#46=DIRECTION('',(1.E0,0.E0,0.E0));
#47=AXIS2_PLACEMENT_3D('',#44,#45,#46);
#49=CURVE_STYLE('',#40,POSITIVE_LENGTH_MEASURE(2.E-2),#28);
#50=PRESENTATION_STYLE_ASSIGNMENT((#49));
#51=STYLED_ITEM('',(#50),#48);
#52=CARTESIAN_POINT('',(0.E0,0.E0,6.955665024631E0));
#53=DIRECTION('',(0.E0,0.E0,1.E0));
#54=DIRECTION('',(-1.E0,0.E0,0.E0));
#55=AXIS2_PLACEMENT_3D('',#52,#53,#54);
#57=CURVE_STYLE('',#40,POSITIVE_LENGTH_MEASURE(2.E-2),#28);
#58=PRESENTATION_STYLE_ASSIGNMENT((#57));
#59=STYLED_ITEM('',(#58),#56);
#60=CARTESIAN_POINT('',(0.E0,0.E0,6.955665024631E0));
#61=DIRECTION('',(0.E0,0.E0,1.E0));
#62=DIRECTION('',(1.E0,0.E0,0.E0));
#63=AXIS2_PLACEMENT_3D('',#60,#61,#62);
#65=CURVE_STYLE('',#40,POSITIVE_LENGTH_MEASURE(2.E-2),#28);
#66=PRESENTATION_STYLE_ASSIGNMENT((#65));
#67=STYLED_ITEM('',(#66),#64);
#68=CARTESIAN_POINT('',(0.E0,0.E0,5.161129500557E0));
#69=DIRECTION('',(0.E0,0.E0,-1.E0));
#70=DIRECTION('',(-1.E0,0.E0,0.E0));
#71=AXIS2_PLACEMENT_3D('',#68,#69,#70);
#73=CURVE_STYLE('',#40,POSITIVE_LENGTH_MEASURE(2.E-2),#28);
#74=PRESENTATION_STYLE_ASSIGNMENT((#73));
#75=STYLED_ITEM('',(#74),#72);
#76=CARTESIAN_POINT('',(0.E0,0.E0,3.955665024631E0));
#77=DIRECTION('',(0.E0,0.E0,-1.E0));
#78=DIRECTION('',(-1.E0,0.E0,0.E0));
#79=AXIS2_PLACEMENT_3D('',#76,#77,#78);
#81=CURVE_STYLE('',#40,POSITIVE_LENGTH_MEASURE(2.E-2),#28);
#82=PRESENTATION_STYLE_ASSIGNMENT((#81));
#83=STYLED_ITEM('',(#82),#80);
#84=CARTESIAN_POINT('',(0.E0,0.E0,3.955665024631E0));
#85=DIRECTION('',(0.E0,0.E0,-1.E0));
#86=DIRECTION('',(1.E0,0.E0,0.E0));
#87=AXIS2_PLACEMENT_3D('',#84,#85,#86);
#89=CURVE_STYLE('',#40,POSITIVE_LENGTH_MEASURE(2.E-2),#28);
#90=PRESENTATION_STYLE_ASSIGNMENT((#89));
#91=STYLED_ITEM('',(#90),#88);
#92=CARTESIAN_POINT('',(0.E0,0.E0,3.955665024631E0));
#93=DIRECTION('',(0.E0,0.E0,1.E0));
#94=DIRECTION('',(-1.E0,0.E0,0.E0));
#95=AXIS2_PLACEMENT_3D('',#92,#93,#94);
#97=CURVE_STYLE('',#40,POSITIVE_LENGTH_MEASURE(2.E-2),#28);
#98=PRESENTATION_STYLE_ASSIGNMENT((#97));
#99=STYLED_ITEM('',(#98),#96);
#100=CARTESIAN_POINT('',(0.E0,0.E0,3.955665024631E0));
#101=DIRECTION('',(0.E0,0.E0,1.E0));
#102=DIRECTION('',(1.E0,0.E0,0.E0));
#103=AXIS2_PLACEMENT_3D('',#100,#101,#102);
#105=CURVE_STYLE('',#40,POSITIVE_LENGTH_MEASURE(2.E-2),#28);
#106=PRESENTATION_STYLE_ASSIGNMENT((#105));
#107=STYLED_ITEM('',(#106),#104);
#108=CARTESIAN_POINT('',(0.E0,0.E0,2.955665024631E0));
#109=DIRECTION('',(0.E0,0.E0,-1.E0));
#110=DIRECTION('',(-1.E0,0.E0,0.E0));
#111=AXIS2_PLACEMENT_3D('',#108,#109,#110);
#113=CURVE_STYLE('',#40,POSITIVE_LENGTH_MEASURE(2.E-2),#28);
#114=PRESENTATION_STYLE_ASSIGNMENT((#113));
#115=STYLED_ITEM('',(#114),#112);
#116=CARTESIAN_POINT('',(0.E0,0.E0,9.556650246305E-1));
#117=DIRECTION('',(0.E0,0.E0,-1.E0));
#118=DIRECTION('',(-1.E0,0.E0,0.E0));
#119=AXIS2_PLACEMENT_3D('',#116,#117,#118);
#121=CURVE_STYLE('',#40,POSITIVE_LENGTH_MEASURE(2.E-2),#28);
#122=PRESENTATION_STYLE_ASSIGNMENT((#121));
#123=STYLED_ITEM('',(#122),#120);
#124=CARTESIAN_POINT('',(0.E0,0.E0,9.556650246305E-1));
#125=DIRECTION('',(0.E0,0.E0,-1.E0));
#126=DIRECTION('',(1.E0,0.E0,0.E0));
#127=AXIS2_PLACEMENT_3D('',#124,#125,#126);
#129=CURVE_STYLE('',#40,POSITIVE_LENGTH_MEASURE(2.E-2),#28);
#130=PRESENTATION_STYLE_ASSIGNMENT((#129));
#131=STYLED_ITEM('',(#130),#128);
#132=CARTESIAN_POINT('',(0.E0,0.E0,9.556650246305E-1));
#133=DIRECTION('',(0.E0,0.E0,1.E0));
#134=DIRECTION('',(-1.E0,0.E0,0.E0));
#135=AXIS2_PLACEMENT_3D('',#132,#133,#134);
#137=CURVE_STYLE('',#40,POSITIVE_LENGTH_MEASURE(2.E-2),#28);
#138=PRESENTATION_STYLE_ASSIGNMENT((#137));
#139=STYLED_ITEM('',(#138),#136);
#140=CARTESIAN_POINT('',(0.E0,0.E0,9.556650246305E-1));
#141=DIRECTION('',(0.E0,0.E0,1.E0));
#142=DIRECTION('',(1.E0,0.E0,0.E0));
#143=AXIS2_PLACEMENT_3D('',#140,#141,#142);
#145=CURVE_STYLE('',#40,POSITIVE_LENGTH_MEASURE(2.E-2),#28);
#146=PRESENTATION_STYLE_ASSIGNMENT((#145));
#147=STYLED_ITEM('',(#146),#144);
#148=CARTESIAN_POINT('',(0.E0,0.E0,2.955665024631E0));
#149=DIRECTION('',(0.E0,0.E0,1.E0));
#150=DIRECTION('',(1.E0,0.E0,0.E0));
#151=AXIS2_PLACEMENT_3D('',#148,#149,#150);
#153=CURVE_STYLE('',#40,POSITIVE_LENGTH_MEASURE(2.E-2),#28);
#154=PRESENTATION_STYLE_ASSIGNMENT((#153));
#155=STYLED_ITEM('',(#154),#152);
#156=CARTESIAN_POINT('',(0.E0,0.E0,5.784092149377E0));
#157=DIRECTION('',(0.E0,0.E0,-1.E0));
#158=DIRECTION('',(-1.E0,0.E0,0.E0));
#159=AXIS2_PLACEMENT_3D('',#156,#157,#158);
#161=CURVE_STYLE('',#40,POSITIVE_LENGTH_MEASURE(2.E-2),#28);
#162=PRESENTATION_STYLE_ASSIGNMENT((#161));
#163=STYLED_ITEM('',(#162),#160);
#164=CARTESIAN_POINT('',(0.E0,0.E0,2.955665024631E0));
#165=DIRECTION('',(0.E0,0.E0,1.E0));
#166=DIRECTION('',(-1.E0,0.E0,0.E0));
#167=AXIS2_PLACEMENT_3D('',#164,#165,#166);
#169=CURVE_STYLE('',#40,POSITIVE_LENGTH_MEASURE(2.E-2),#28);
#170=PRESENTATION_STYLE_ASSIGNMENT((#169));
#171=STYLED_ITEM('',(#170),#168);
#172=CARTESIAN_POINT('',(-1.3E1,0.E0,2.955665024631E0));
#173=DIRECTION('',(0.E0,-1.E0,0.E0));
#174=DIRECTION('',(-7.071067811865E-1,0.E0,7.071067811865E-1));
#175=AXIS2_PLACEMENT_3D('',#172,#173,#174);
#177=CURVE_STYLE('',#40,POSITIVE_LENGTH_MEASURE(2.E-2),#28);
#178=PRESENTATION_STYLE_ASSIGNMENT((#177));
#179=STYLED_ITEM('',(#178),#176);
#180=CARTESIAN_POINT('',(0.E0,0.E0,5.784092149377E0));
#181=DIRECTION('',(0.E0,0.E0,-1.E0));
#182=DIRECTION('',(1.E0,0.E0,0.E0));
#183=AXIS2_PLACEMENT_3D('',#180,#181,#182);
#185=CURVE_STYLE('',#40,POSITIVE_LENGTH_MEASURE(2.E-2),#28);
#186=PRESENTATION_STYLE_ASSIGNMENT((#185));
#187=STYLED_ITEM('',(#186),#184);
#188=CARTESIAN_POINT('',(1.3E1,0.E0,2.955665024631E0));
#189=DIRECTION('',(0.E0,1.E0,0.E0));
#190=DIRECTION('',(7.071067811865E-1,0.E0,7.071067811865E-1));
#191=AXIS2_PLACEMENT_3D('',#188,#189,#190);
#193=CURVE_STYLE('',#40,POSITIVE_LENGTH_MEASURE(2.E-2),#28);
#194=PRESENTATION_STYLE_ASSIGNMENT((#193));
#195=STYLED_ITEM('',(#194),#192);
#196=DIRECTION('',(0.E0,0.E0,-1.E0));
#197=VECTOR('',#196,2.E0);
#198=CARTESIAN_POINT('',(1.7E1,0.E0,2.955665024631E0));
#199=LINE('',#198,#197);
#200=CURVE_STYLE('',#40,POSITIVE_LENGTH_MEASURE(2.E-2),#28);
#201=PRESENTATION_STYLE_ASSIGNMENT((#200));
#202=STYLED_ITEM('',(#201),#199);
#203=DIRECTION('',(0.E0,0.E0,-1.E0));
#204=VECTOR('',#203,2.E0);
#205=CARTESIAN_POINT('',(-1.7E1,0.E0,2.955665024631E0));
#206=LINE('',#205,#204);
#207=CURVE_STYLE('',#40,POSITIVE_LENGTH_MEASURE(2.E-2),#28);
#208=PRESENTATION_STYLE_ASSIGNMENT((#207));
#209=STYLED_ITEM('',(#208),#206);
#210=CARTESIAN_POINT('',(1.3E1,0.E0,2.955665024631E0));
#211=DIRECTION('',(0.E0,1.E0,0.E0));
#212=DIRECTION('',(0.E0,0.E0,1.E0));
#213=AXIS2_PLACEMENT_3D('',#210,#211,#212);
#215=CURVE_STYLE('',#40,POSITIVE_LENGTH_MEASURE(2.E-2),#28);
#216=PRESENTATION_STYLE_ASSIGNMENT((#215));
#217=STYLED_ITEM('',(#216),#214);
#218=CARTESIAN_POINT('',(-1.3E1,0.E0,2.955665024631E0));
#219=DIRECTION('',(0.E0,-1.E0,0.E0));
#220=DIRECTION('',(0.E0,0.E0,1.E0));
#221=AXIS2_PLACEMENT_3D('',#218,#219,#220);
#223=CURVE_STYLE('',#40,POSITIVE_LENGTH_MEASURE(2.E-2),#28);
#224=PRESENTATION_STYLE_ASSIGNMENT((#223));
#225=STYLED_ITEM('',(#224),#222);
#226=DIRECTION('',(0.E0,0.E0,-1.E0));
#227=VECTOR('',#226,2.E0);
#228=CARTESIAN_POINT('',(2.25E0,0.E0,2.955665024631E0));
#229=LINE('',#228,#227);
#230=CURVE_STYLE('',#40,POSITIVE_LENGTH_MEASURE(2.E-2),#28);
#231=PRESENTATION_STYLE_ASSIGNMENT((#230));
#232=STYLED_ITEM('',(#231),#229);
#233=DIRECTION('',(0.E0,0.E0,-1.E0));
#234=VECTOR('',#233,2.E0);
#235=CARTESIAN_POINT('',(-2.25E0,0.E0,2.955665024631E0));
#236=LINE('',#235,#234);
#237=CURVE_STYLE('',#40,POSITIVE_LENGTH_MEASURE(2.E-2),#28);
#238=PRESENTATION_STYLE_ASSIGNMENT((#237));
#239=STYLED_ITEM('',(#238),#236);
#240=CARTESIAN_POINT('',(0.E0,0.E0,2.955665024631E0));
#241=DIRECTION('',(0.E0,0.E0,-1.E0));
#242=DIRECTION('',(1.E0,0.E0,0.E0));
#243=AXIS2_PLACEMENT_3D('',#240,#241,#242);
#245=CURVE_STYLE('',#40,POSITIVE_LENGTH_MEASURE(2.E-2),#28);
#246=PRESENTATION_STYLE_ASSIGNMENT((#245));
#247=STYLED_ITEM('',(#246),#244);
#248=DIRECTION('',(7.071067811865E-1,0.E0,7.071067811865E-1));
#249=VECTOR('',#248,1.414213562373E0);
#250=CARTESIAN_POINT('',(2.25E0,0.E0,2.955665024631E0));
#251=LINE('',#250,#249);
#252=CURVE_STYLE('',#40,POSITIVE_LENGTH_MEASURE(2.E-2),#28);
#253=PRESENTATION_STYLE_ASSIGNMENT((#252));
#254=STYLED_ITEM('',(#253),#251);
#255=DIRECTION('',(-7.071067811865E-1,0.E0,7.071067811865E-1));
#256=VECTOR('',#255,1.414213562373E0);
#257=CARTESIAN_POINT('',(-2.25E0,0.E0,2.955665024631E0));
#258=LINE('',#257,#256);
#259=CURVE_STYLE('',#40,POSITIVE_LENGTH_MEASURE(2.E-2),#28);
#260=PRESENTATION_STYLE_ASSIGNMENT((#259));
#261=STYLED_ITEM('',(#260),#258);
#262=DIRECTION('',(8.715574274766E-2,0.E0,9.961946980917E-1));
#263=VECTOR('',#262,1.210069154389E0);
#264=CARTESIAN_POINT('',(4.35E0,0.E0,3.955665024631E0));
#265=LINE('',#264,#263);
#266=CURVE_STYLE('',#40,POSITIVE_LENGTH_MEASURE(2.E-2),#28);
#267=PRESENTATION_STYLE_ASSIGNMENT((#266));
#268=STYLED_ITEM('',(#267),#265);
#269=DIRECTION('',(-8.715574274766E-2,0.E0,9.961946980917E-1));
#270=VECTOR('',#269,1.210069154389E0);
#271=CARTESIAN_POINT('',(-4.35E0,0.E0,3.955665024631E0));
#272=LINE('',#271,#270);
#273=CURVE_STYLE('',#40,POSITIVE_LENGTH_MEASURE(2.E-2),#28);
#274=PRESENTATION_STYLE_ASSIGNMENT((#273));
#275=STYLED_ITEM('',(#274),#272);
#276=CARTESIAN_POINT('',(0.E0,0.E0,5.161129500557E0));
#277=DIRECTION('',(0.E0,0.E0,-1.E0));
#278=DIRECTION('',(1.E0,0.E0,0.E0));
#279=AXIS2_PLACEMENT_3D('',#276,#277,#278);
#281=CURVE_STYLE('',#40,POSITIVE_LENGTH_MEASURE(2.E-2),#28);
#282=PRESENTATION_STYLE_ASSIGNMENT((#281));
#283=STYLED_ITEM('',(#282),#280);
#284=DIRECTION('',(7.071067811866E-1,0.E0,7.071067811865E-1));
#285=VECTOR('',#284,2.537856476305E0);
#286=CARTESIAN_POINT('',(4.455464475927E0,0.E0,5.161129500557E0));
#287=LINE('',#286,#285);
#288=CURVE_STYLE('',#40,POSITIVE_LENGTH_MEASURE(2.E-2),#28);
#289=PRESENTATION_STYLE_ASSIGNMENT((#288));
#290=STYLED_ITEM('',(#289),#287);
#291=DIRECTION('',(-7.071067811866E-1,0.E0,7.071067811865E-1));
#292=VECTOR('',#291,2.537856476305E0);
#293=CARTESIAN_POINT('',(-4.455464475927E0,0.E0,5.161129500557E0));
#294=LINE('',#293,#292);
#295=CURVE_STYLE('',#40,POSITIVE_LENGTH_MEASURE(2.E-2),#28);
#296=PRESENTATION_STYLE_ASSIGNMENT((#295));
#297=STYLED_ITEM('',(#296),#294);
#298=CARTESIAN_POINT('',(-1.3E1,0.E0,6.955665024631E0));
#299=CARTESIAN_POINT('',(-1.582842712475E1,0.E0,5.784092149377E0));
#300=VERTEX_POINT('',#298);
#301=VERTEX_POINT('',#299);
#302=CARTESIAN_POINT('',(1.582842712475E1,0.E0,5.784092149377E0));
#303=VERTEX_POINT('',#302);
#304=CARTESIAN_POINT('',(1.3E1,0.E0,6.955665024631E0));
#305=VERTEX_POINT('',#304);
#306=CARTESIAN_POINT('',(1.7E1,0.E0,2.955665024631E0));
#307=VERTEX_POINT('',#306);
#308=CARTESIAN_POINT('',(-1.7E1,0.E0,2.955665024631E0));
#309=VERTEX_POINT('',#308);
#310=CARTESIAN_POINT('',(-1.7E1,0.E0,9.556650246305E-1));
#311=VERTEX_POINT('',#310);
#312=CARTESIAN_POINT('',(1.7E1,0.E0,9.556650246305E-1));
#313=VERTEX_POINT('',#312);
#314=CARTESIAN_POINT('',(-4.455464475927E0,0.E0,5.161129500557E0));
#315=CARTESIAN_POINT('',(-6.25E0,0.E0,6.955665024631E0));
#316=VERTEX_POINT('',#314);
#317=VERTEX_POINT('',#315);
#318=CARTESIAN_POINT('',(4.455464475927E0,0.E0,5.161129500557E0));
#319=CARTESIAN_POINT('',(6.25E0,0.E0,6.955665024631E0));
#320=VERTEX_POINT('',#318);
#321=VERTEX_POINT('',#319);
#322=CARTESIAN_POINT('',(-4.35E0,0.E0,3.955665024631E0));
#323=VERTEX_POINT('',#322);
#324=CARTESIAN_POINT('',(4.35E0,0.E0,3.955665024631E0));
#325=VERTEX_POINT('',#324);
#326=CARTESIAN_POINT('',(-2.25E0,0.E0,2.955665024631E0));
#327=CARTESIAN_POINT('',(-3.25E0,0.E0,3.955665024631E0));
#328=VERTEX_POINT('',#326);
#329=VERTEX_POINT('',#327);
#330=CARTESIAN_POINT('',(2.25E0,0.E0,2.955665024631E0));
#331=CARTESIAN_POINT('',(3.25E0,0.E0,3.955665024631E0));
#332=VERTEX_POINT('',#330);
#333=VERTEX_POINT('',#331);
#334=CARTESIAN_POINT('',(-2.25E0,0.E0,9.556650246305E-1));
#335=VERTEX_POINT('',#334);
#336=CARTESIAN_POINT('',(2.25E0,0.E0,9.556650246305E-1));
#337=VERTEX_POINT('',#336);
#338=CARTESIAN_POINT('',(0.E0,0.E0,2.955665024631E0));
#339=DIRECTION('',(0.E0,0.E0,-1.E0));
#340=DIRECTION('',(-1.E0,0.E0,0.E0));
#341=AXIS2_PLACEMENT_3D('',#338,#339,#340);
#342=TOROIDAL_SURFACE('',#341,1.3E1,4.E0);
#344=ORIENTED_EDGE('',*,*,#343,.T.);
#346=ORIENTED_EDGE('',*,*,#345,.T.);
#348=ORIENTED_EDGE('',*,*,#347,.T.);
#350=ORIENTED_EDGE('',*,*,#349,.F.);
#351=EDGE_LOOP('',(#344,#346,#348,#350));
#352=FACE_OUTER_BOUND('',#351,.F.);
#353=ADVANCED_FACE('',(#352),#342,.T.);
#354=CARTESIAN_POINT('',(1.3E1,0.E0,6.955665024631E0));
#355=DIRECTION('',(0.E0,0.E0,1.E0));
#356=DIRECTION('',(1.E0,0.E0,0.E0));
#357=AXIS2_PLACEMENT_3D('',#354,#355,#356);
#358=PLANE('',#357);
#360=ORIENTED_EDGE('',*,*,#359,.F.);
#361=ORIENTED_EDGE('',*,*,#343,.F.);
#362=EDGE_LOOP('',(#360,#361));
#363=FACE_OUTER_BOUND('',#362,.F.);
#365=ORIENTED_EDGE('',*,*,#364,.F.);
#367=ORIENTED_EDGE('',*,*,#366,.F.);
#368=EDGE_LOOP('',(#365,#367));
#369=FACE_BOUND('',#368,.F.);
#370=ADVANCED_FACE('',(#363,#369),#358,.T.);
#371=CARTESIAN_POINT('',(0.E0,0.E0,6.058397262594E0));
#372=DIRECTION('',(0.E0,0.E0,1.E0));
#373=DIRECTION('',(1.E0,0.E0,0.E0));
#374=AXIS2_PLACEMENT_3D('',#371,#372,#373);
#375=CONICAL_SURFACE('',#374,5.352732237963E0,4.5E1);
#377=ORIENTED_EDGE('',*,*,#376,.F.);
#379=ORIENTED_EDGE('',*,*,#378,.T.);
#380=ORIENTED_EDGE('',*,*,#364,.T.);
#382=ORIENTED_EDGE('',*,*,#381,.F.);
#383=EDGE_LOOP('',(#377,#379,#380,#382));
#384=FACE_OUTER_BOUND('',#383,.F.);
#385=ADVANCED_FACE('',(#384),#375,.F.);
#386=CARTESIAN_POINT('',(0.E0,0.E0,4.558397262594E0));
#387=DIRECTION('',(0.E0,0.E0,1.E0));
#388=DIRECTION('',(1.E0,0.E0,0.E0));
#389=AXIS2_PLACEMENT_3D('',#386,#387,#388);
#390=CONICAL_SURFACE('',#389,4.402732237963E0,5.E0);
#392=ORIENTED_EDGE('',*,*,#391,.T.);
#394=ORIENTED_EDGE('',*,*,#393,.T.);
#395=ORIENTED_EDGE('',*,*,#376,.T.);
#397=ORIENTED_EDGE('',*,*,#396,.F.);
#398=EDGE_LOOP('',(#392,#394,#395,#397));
#399=FACE_OUTER_BOUND('',#398,.F.);
#400=ADVANCED_FACE('',(#399),#390,.F.);
#401=CARTESIAN_POINT('',(4.35E0,0.E0,3.955665024631E0));
#402=DIRECTION('',(0.E0,0.E0,1.E0));
#403=DIRECTION('',(1.E0,0.E0,0.E0));
#404=AXIS2_PLACEMENT_3D('',#401,#402,#403);
#405=PLANE('',#404);
#407=ORIENTED_EDGE('',*,*,#406,.F.);
#408=ORIENTED_EDGE('',*,*,#391,.F.);
#409=EDGE_LOOP('',(#407,#408));
#410=FACE_OUTER_BOUND('',#409,.F.);
#412=ORIENTED_EDGE('',*,*,#411,.F.);
#414=ORIENTED_EDGE('',*,*,#413,.F.);
#415=EDGE_LOOP('',(#412,#414));
#416=FACE_BOUND('',#415,.F.);
#417=ADVANCED_FACE('',(#410,#416),#405,.T.);
#418=CARTESIAN_POINT('',(0.E0,0.E0,3.455665024631E0));
#419=DIRECTION('',(0.E0,0.E0,1.E0));
#420=DIRECTION('',(1.E0,0.E0,0.E0));
#421=AXIS2_PLACEMENT_3D('',#418,#419,#420);
#422=CONICAL_SURFACE('',#421,2.75E0,4.5E1);
#424=ORIENTED_EDGE('',*,*,#423,.F.);
#426=ORIENTED_EDGE('',*,*,#425,.T.);
#427=ORIENTED_EDGE('',*,*,#411,.T.);
#429=ORIENTED_EDGE('',*,*,#428,.F.);
#430=EDGE_LOOP('',(#424,#426,#427,#429));
#431=FACE_OUTER_BOUND('',#430,.F.);
#432=ADVANCED_FACE('',(#431),#422,.F.);
#433=CARTESIAN_POINT('',(0.E0,0.E0,6.955665024631E0));
#434=DIRECTION('',(0.E0,0.E0,-1.E0));
#435=DIRECTION('',(-1.E0,0.E0,0.E0));
#436=AXIS2_PLACEMENT_3D('',#433,#434,#435);
#437=CYLINDRICAL_SURFACE('',#436,2.25E0);
#439=ORIENTED_EDGE('',*,*,#438,.T.);
#441=ORIENTED_EDGE('',*,*,#440,.F.);
#442=ORIENTED_EDGE('',*,*,#423,.T.);
#444=ORIENTED_EDGE('',*,*,#443,.T.);
#445=EDGE_LOOP('',(#439,#441,#442,#444));
#446=FACE_OUTER_BOUND('',#445,.F.);
#447=ADVANCED_FACE('',(#446),#437,.F.);
#448=CARTESIAN_POINT('',(2.25E0,0.E0,9.556650246305E-1));
#449=DIRECTION('',(0.E0,0.E0,-1.E0));
#450=DIRECTION('',(-1.E0,0.E0,0.E0));
#451=AXIS2_PLACEMENT_3D('',#448,#449,#450);
#452=PLANE('',#451);
#454=ORIENTED_EDGE('',*,*,#453,.F.);
#456=ORIENTED_EDGE('',*,*,#455,.F.);
#457=EDGE_LOOP('',(#454,#456));
#458=FACE_OUTER_BOUND('',#457,.F.);
#460=ORIENTED_EDGE('',*,*,#459,.F.);
#461=ORIENTED_EDGE('',*,*,#438,.F.);
#462=EDGE_LOOP('',(#460,#461));
#463=FACE_BOUND('',#462,.F.);
#464=ADVANCED_FACE('',(#458,#463),#452,.T.);
#465=CARTESIAN_POINT('',(0.E0,0.E0,6.955665024631E0));
#466=DIRECTION('',(0.E0,0.E0,-1.E0));
#467=DIRECTION('',(-1.E0,0.E0,0.E0));
#468=AXIS2_PLACEMENT_3D('',#465,#466,#467);
#469=CYLINDRICAL_SURFACE('',#468,1.7E1);
#471=ORIENTED_EDGE('',*,*,#470,.T.);
#473=ORIENTED_EDGE('',*,*,#472,.T.);
#474=ORIENTED_EDGE('',*,*,#453,.T.);
#476=ORIENTED_EDGE('',*,*,#475,.F.);
#477=EDGE_LOOP('',(#471,#473,#474,#476));
#478=FACE_OUTER_BOUND('',#477,.F.);
#479=ADVANCED_FACE('',(#478),#469,.T.);
#480=CARTESIAN_POINT('',(0.E0,0.E0,2.955665024631E0));
#481=DIRECTION('',(0.E0,0.E0,-1.E0));
#482=DIRECTION('',(-1.E0,0.E0,0.E0));
#483=AXIS2_PLACEMENT_3D('',#480,#481,#482);
#484=TOROIDAL_SURFACE('',#483,1.3E1,4.E0);
#485=ORIENTED_EDGE('',*,*,#470,.F.);
#487=ORIENTED_EDGE('',*,*,#486,.F.);
#488=ORIENTED_EDGE('',*,*,#347,.F.);
#490=ORIENTED_EDGE('',*,*,#489,.T.);
#491=EDGE_LOOP('',(#485,#487,#488,#490));
#492=FACE_OUTER_BOUND('',#491,.F.);
#493=ADVANCED_FACE('',(#492),#484,.T.);
#494=CARTESIAN_POINT('',(0.E0,0.E0,2.955665024631E0));
#495=DIRECTION('',(0.E0,0.E0,-1.E0));
#496=DIRECTION('',(-1.E0,0.E0,0.E0));
#497=AXIS2_PLACEMENT_3D('',#494,#495,#496);
#498=TOROIDAL_SURFACE('',#497,1.3E1,4.E0);
#500=ORIENTED_EDGE('',*,*,#499,.F.);
#501=ORIENTED_EDGE('',*,*,#489,.F.);
#503=ORIENTED_EDGE('',*,*,#502,.F.);
#504=ORIENTED_EDGE('',*,*,#486,.T.);
#505=EDGE_LOOP('',(#500,#501,#503,#504));
#506=FACE_OUTER_BOUND('',#505,.F.);
#507=ADVANCED_FACE('',(#506),#498,.T.);
#508=CARTESIAN_POINT('',(0.E0,0.E0,6.955665024631E0));
#509=DIRECTION('',(0.E0,0.E0,-1.E0));
#510=DIRECTION('',(-1.E0,0.E0,0.E0));
#511=AXIS2_PLACEMENT_3D('',#508,#509,#510);
#512=CYLINDRICAL_SURFACE('',#511,1.7E1);
#513=ORIENTED_EDGE('',*,*,#499,.T.);
#514=ORIENTED_EDGE('',*,*,#475,.T.);
#515=ORIENTED_EDGE('',*,*,#455,.T.);
#516=ORIENTED_EDGE('',*,*,#472,.F.);
#517=EDGE_LOOP('',(#513,#514,#515,#516));
#518=FACE_OUTER_BOUND('',#517,.F.);
#519=ADVANCED_FACE('',(#518),#512,.T.);
#520=CARTESIAN_POINT('',(0.E0,0.E0,2.955665024631E0));
#521=DIRECTION('',(0.E0,0.E0,-1.E0));
#522=DIRECTION('',(-1.E0,0.E0,0.E0));
#523=AXIS2_PLACEMENT_3D('',#520,#521,#522);
#524=TOROIDAL_SURFACE('',#523,1.3E1,4.E0);
#525=ORIENTED_EDGE('',*,*,#359,.T.);
#526=ORIENTED_EDGE('',*,*,#349,.T.);
#527=ORIENTED_EDGE('',*,*,#502,.T.);
#528=ORIENTED_EDGE('',*,*,#345,.F.);
#529=EDGE_LOOP('',(#525,#526,#527,#528));
#530=FACE_OUTER_BOUND('',#529,.F.);
#531=ADVANCED_FACE('',(#530),#524,.T.);
#532=CARTESIAN_POINT('',(0.E0,0.E0,6.955665024631E0));
#533=DIRECTION('',(0.E0,0.E0,-1.E0));
#534=DIRECTION('',(-1.E0,0.E0,0.E0));
#535=AXIS2_PLACEMENT_3D('',#532,#533,#534);
#536=CYLINDRICAL_SURFACE('',#535,2.25E0);
#537=ORIENTED_EDGE('',*,*,#459,.T.);
#538=ORIENTED_EDGE('',*,*,#443,.F.);
#540=ORIENTED_EDGE('',*,*,#539,.T.);
#541=ORIENTED_EDGE('',*,*,#440,.T.);
#542=EDGE_LOOP('',(#537,#538,#540,#541));
#543=FACE_OUTER_BOUND('',#542,.F.);
#544=ADVANCED_FACE('',(#543),#536,.F.);
#545=CARTESIAN_POINT('',(0.E0,0.E0,3.455665024631E0));
#546=DIRECTION('',(0.E0,0.E0,1.E0));
#547=DIRECTION('',(1.E0,0.E0,0.E0));
#548=AXIS2_PLACEMENT_3D('',#545,#546,#547);
#549=CONICAL_SURFACE('',#548,2.75E0,4.5E1);
#550=ORIENTED_EDGE('',*,*,#539,.F.);
#551=ORIENTED_EDGE('',*,*,#428,.T.);
#552=ORIENTED_EDGE('',*,*,#413,.T.);
#553=ORIENTED_EDGE('',*,*,#425,.F.);
#554=EDGE_LOOP('',(#550,#551,#552,#553));
#555=FACE_OUTER_BOUND('',#554,.F.);
#556=ADVANCED_FACE('',(#555),#549,.F.);
#557=CARTESIAN_POINT('',(0.E0,0.E0,4.558397262594E0));
#558=DIRECTION('',(0.E0,0.E0,1.E0));
#559=DIRECTION('',(1.E0,0.E0,0.E0));
#560=AXIS2_PLACEMENT_3D('',#557,#558,#559);
#561=CONICAL_SURFACE('',#560,4.402732237963E0,5.E0);
#562=ORIENTED_EDGE('',*,*,#406,.T.);
#563=ORIENTED_EDGE('',*,*,#396,.T.);
#565=ORIENTED_EDGE('',*,*,#564,.T.);
#566=ORIENTED_EDGE('',*,*,#393,.F.);
#567=EDGE_LOOP('',(#562,#563,#565,#566));
#568=FACE_OUTER_BOUND('',#567,.F.);
#569=ADVANCED_FACE('',(#568),#561,.F.);
#570=CARTESIAN_POINT('',(0.E0,0.E0,6.058397262594E0));
#571=DIRECTION('',(0.E0,0.E0,1.E0));
#572=DIRECTION('',(1.E0,0.E0,0.E0));
#573=AXIS2_PLACEMENT_3D('',#570,#571,#572);
#574=CONICAL_SURFACE('',#573,5.352732237963E0,4.5E1);
#575=ORIENTED_EDGE('',*,*,#564,.F.);
#576=ORIENTED_EDGE('',*,*,#381,.T.);
#577=ORIENTED_EDGE('',*,*,#366,.T.);
#578=ORIENTED_EDGE('',*,*,#378,.F.);
#579=EDGE_LOOP('',(#575,#576,#577,#578));
#580=FACE_OUTER_BOUND('',#579,.F.);
#581=ADVANCED_FACE('',(#580),#574,.F.);
#582=CLOSED_SHELL('',(#353,#370,#385,#400,#417,#432,#447,#464,#479,#493,#507,
#519,#531,#544,#556,#569,#581));
#583=MANIFOLD_SOLID_BREP('',#582);
#584=FILL_AREA_STYLE_COLOUR('',#28);
#585=FILL_AREA_STYLE('',(#584));
#586=SURFACE_STYLE_FILL_AREA(#585);
#587=SURFACE_SIDE_STYLE('',(#586));
#588=SURFACE_STYLE_USAGE(.BOTH.,#587);
#589=PRESENTATION_STYLE_ASSIGNMENT((#588));
#34=STYLED_ITEM('',(#589),#583);
#590=PRESENTATION_LAYER_ASSIGNMENT('SHELL','',(#34));
#592=DIMENSIONAL_EXPONENTS(0.E0,0.E0,0.E0,0.E0,0.E0,0.E0,0.E0);
#594=PLANE_ANGLE_MEASURE_WITH_UNIT(PLANE_ANGLE_MEASURE(1.745329251994E-2),#593);
#595=(CONVERSION_BASED_UNIT('DEGREE',#594)NAMED_UNIT(*)PLANE_ANGLE_UNIT());
#597=UNCERTAINTY_MEASURE_WITH_UNIT(LENGTH_MEASURE(4.847052592627E-3),#591,
'closure',
'Maximum model space distance between geometric entities at asserted connectivities');
#598=(GEOMETRIC_REPRESENTATION_CONTEXT(3)GLOBAL_UNCERTAINTY_ASSIGNED_CONTEXT((
#597))GLOBAL_UNIT_ASSIGNED_CONTEXT((#591,#595,#596))REPRESENTATION_CONTEXT
('ID1','3'));
#600=MECHANICAL_DESIGN_GEOMETRIC_PRESENTATION_REPRESENTATION('',(#43,#51,#59,
#67,#75,#83,#91,#99,#107,#115,#123,#131,#139,#147,#155,#163,#171,#179,#187,#195,
#202,#209,#217,#225,#232,#239,#247,#254,#261,#268,#275,#283,#290,#297,#34),
#598);
#601=APPLICATION_CONTEXT(
'CONFIGURATION CONTROLLED 3D DESIGNS OF MECHANICAL PARTS AND ASSEMBLIES');
#602=APPLICATION_PROTOCOL_DEFINITION('international standard',
'config_control_design',1994,#601);
#603=DESIGN_CONTEXT('',#601,'design');
#604=MECHANICAL_CONTEXT('',#601,'mechanical');
#605=PRODUCT('CAD-8512','CAD-8512','NOT SPECIFIED',(#604));
#606=PRODUCT_DEFINITION_FORMATION_WITH_SPECIFIED_SOURCE('1','LAST_VERSION',#605,
.MADE.);
#610=PRODUCT_CATEGORY('part','');
#611=PRODUCT_RELATED_PRODUCT_CATEGORY('detail','',(#605));
#612=PRODUCT_CATEGORY_RELATIONSHIP('','',#610,#611);
#613=SECURITY_CLASSIFICATION_LEVEL('unclassified');
#614=SECURITY_CLASSIFICATION('','',#613);
#615=CC_DESIGN_SECURITY_CLASSIFICATION(#614,(#606));
#616=APPROVAL_STATUS('approved');
#617=APPROVAL(#616,'');
#618=CC_DESIGN_APPROVAL(#617,(#614,#606,#607));
#619=CALENDAR_DATE(122,4,8);
#620=COORDINATED_UNIVERSAL_TIME_OFFSET(2,0,.AHEAD.);
#621=LOCAL_TIME(8,44,3.5E1,#620);
#622=DATE_AND_TIME(#619,#621);
#623=APPROVAL_DATE_TIME(#622,#617);
#624=DATE_TIME_ROLE('creation_date');
#625=CC_DESIGN_DATE_AND_TIME_ASSIGNMENT(#622,#624,(#607));
#626=DATE_TIME_ROLE('classification_date');
#627=CC_DESIGN_DATE_AND_TIME_ASSIGNMENT(#622,#626,(#614));
#628=PERSON('UNSPECIFIED','UNSPECIFIED',$,$,$,$);
#629=ORGANIZATION('UNSPECIFIED','UNSPECIFIED','UNSPECIFIED');
#630=PERSON_AND_ORGANIZATION(#628,#629);
#631=APPROVAL_ROLE('approver');
#632=APPROVAL_PERSON_ORGANIZATION(#630,#617,#631);
#633=PERSON_AND_ORGANIZATION_ROLE('creator');
#634=CC_DESIGN_PERSON_AND_ORGANIZATION_ASSIGNMENT(#630,#633,(#606,#607));
#635=PERSON_AND_ORGANIZATION_ROLE('design_supplier');
#636=CC_DESIGN_PERSON_AND_ORGANIZATION_ASSIGNMENT(#630,#635,(#606));
#637=PERSON_AND_ORGANIZATION_ROLE('classification_officer');
#638=CC_DESIGN_PERSON_AND_ORGANIZATION_ASSIGNMENT(#630,#637,(#614));
#639=PERSON_AND_ORGANIZATION_ROLE('design_owner');
#640=CC_DESIGN_PERSON_AND_ORGANIZATION_ASSIGNMENT(#630,#639,(#605));
#1=COLOUR_RGB('',0.E0,0.E0,1.96E-1);
#2=COLOUR_RGB('',0.E0,0.E0,3.14E-1);
#3=COLOUR_RGB('',0.E0,1.96E-1,0.E0);
#4=COLOUR_RGB('',0.E0,3.14E-1,0.E0);
#5=COLOUR_RGB('',7.8E-2,7.8E-2,7.8E-2);
#6=COLOUR_RGB('',1.18E-1,1.18E-1,4.71E-1);
#7=COLOUR_RGB('',1.57E-1,1.57E-1,1.57E-1);
#8=COLOUR_RGB('',1.96E-1,0.E0,0.E0);
#9=COLOUR_RGB('',1.96E-1,0.E0,1.96E-1);
#10=COLOUR_RGB('',1.96E-1,5.88E-1,1.96E-1);
#11=COLOUR_RGB('',2.35E-1,2.35E-1,2.35E-1);
#12=COLOUR_RGB('',2.35E-1,2.35E-1,5.88E-1);
#13=COLOUR_RGB('',3.14E-1,3.14E-1,3.14E-1);
#14=COLOUR_RGB('',3.27543E-1,1.E0,6.33116E-1);
#15=COLOUR_RGB('',3.92E-1,0.E0,0.E0);
#16=COLOUR_RGB('',3.92E-1,0.E0,3.92E-1);
#17=COLOUR_RGB('',3.92E-1,3.92E-1,3.92E-1);
#18=COLOUR_RGB('',3.92E-1,3.92E-1,8.63E-1);
#19=COLOUR_RGB('',3.92E-1,5.88E-1,3.92E-1);
#20=COLOUR_RGB('',3.92E-1,5.88E-1,8.63E-1);
#21=COLOUR_RGB('',5.01961E-1,1.E0,5.01961E-1);
#22=COLOUR_RGB('',5.5E-1,5.6E-1,7.E-1);
#23=COLOUR_RGB('',5.88E-1,5.88E-1,5.88E-1);
#24=COLOUR_RGB('',5.88E-1,7.84E-1,5.88E-1);
#25=COLOUR_RGB('',6.2E-1,3.1E-1,6.5E-1);
#26=COLOUR_RGB('',6.8E-1,8.5E-1,1.E0);
#27=COLOUR_RGB('',6.952E-1,7.426E-1,7.9E-1);
#28=COLOUR_RGB('',7.019607843137E-1,7.333333333333E-1,7.568627450980E-1);
#29=COLOUR_RGB('',9.8E-1,3.92E-1,0.E0);
#30=COLOUR_RGB('',9.8E-1,5.88E-1,0.E0);
#31=COLOUR_RGB('',9.8E-1,7.84E-1,0.E0);
#32=COLOUR_RGB('',1.E0,3.7E-1,3.8E-1);
#33=DRAUGHTING_PRE_DEFINED_COLOUR('white');
#39=CIRCLE('',#38,6.25E0);
#48=CIRCLE('',#47,6.25E0);
#56=CIRCLE('',#55,1.3E1);
#64=CIRCLE('',#63,1.3E1);
#72=CIRCLE('',#71,4.455464475927E0);
#80=CIRCLE('',#79,3.25E0);
#88=CIRCLE('',#87,3.25E0);
#96=CIRCLE('',#95,4.35E0);
#104=CIRCLE('',#103,4.35E0);
#112=CIRCLE('',#111,2.25E0);
#120=CIRCLE('',#119,1.7E1);
#128=CIRCLE('',#127,1.7E1);
#136=CIRCLE('',#135,2.25E0);
#144=CIRCLE('',#143,2.25E0);
#152=CIRCLE('',#151,1.7E1);
#160=CIRCLE('',#159,1.582842712475E1);
#168=CIRCLE('',#167,1.7E1);
#176=CIRCLE('',#175,4.E0);
#184=CIRCLE('',#183,1.582842712475E1);
#192=CIRCLE('',#191,4.E0);
#214=CIRCLE('',#213,4.E0);
#222=CIRCLE('',#221,4.E0);
#244=CIRCLE('',#243,2.25E0);
#280=CIRCLE('',#279,4.455464475927E0);
#343=EDGE_CURVE('',#305,#300,#64,.T.);
#345=EDGE_CURVE('',#300,#301,#222,.T.);
#347=EDGE_CURVE('',#301,#303,#160,.T.);
#349=EDGE_CURVE('',#305,#303,#214,.T.);
#359=EDGE_CURVE('',#300,#305,#56,.T.);
#364=EDGE_CURVE('',#317,#321,#39,.T.);
#366=EDGE_CURVE('',#321,#317,#48,.T.);
#376=EDGE_CURVE('',#316,#320,#72,.T.);
#378=EDGE_CURVE('',#316,#317,#294,.T.);
#381=EDGE_CURVE('',#320,#321,#287,.T.);
#391=EDGE_CURVE('',#325,#323,#104,.T.);
#393=EDGE_CURVE('',#323,#316,#272,.T.);
#396=EDGE_CURVE('',#325,#320,#265,.T.);
#406=EDGE_CURVE('',#323,#325,#96,.T.);
#411=EDGE_CURVE('',#329,#333,#80,.T.);
#413=EDGE_CURVE('',#333,#329,#88,.T.);
#423=EDGE_CURVE('',#328,#332,#112,.T.);
#425=EDGE_CURVE('',#328,#329,#258,.T.);
#428=EDGE_CURVE('',#332,#333,#251,.T.);
#438=EDGE_CURVE('',#337,#335,#144,.T.);
#440=EDGE_CURVE('',#328,#335,#236,.T.);
#443=EDGE_CURVE('',#332,#337,#229,.T.);
#453=EDGE_CURVE('',#311,#313,#120,.T.);
#455=EDGE_CURVE('',#313,#311,#128,.T.);
#459=EDGE_CURVE('',#335,#337,#136,.T.);
#470=EDGE_CURVE('',#307,#309,#152,.T.);
#472=EDGE_CURVE('',#309,#311,#206,.T.);
#475=EDGE_CURVE('',#307,#313,#199,.T.);
#486=EDGE_CURVE('',#303,#307,#192,.T.);
#489=EDGE_CURVE('',#301,#309,#176,.T.);
#499=EDGE_CURVE('',#309,#307,#168,.T.);
#502=EDGE_CURVE('',#303,#301,#184,.T.);
#539=EDGE_CURVE('',#332,#328,#244,.T.);
#564=EDGE_CURVE('',#320,#316,#280,.T.);
#591=(LENGTH_UNIT()NAMED_UNIT(*)SI_UNIT(.MILLI.,.METRE.));
#593=(NAMED_UNIT(*)PLANE_ANGLE_UNIT()SI_UNIT($,.RADIAN.));
#596=(NAMED_UNIT(*)SI_UNIT($,.STERADIAN.)SOLID_ANGLE_UNIT());
#599=ADVANCED_BREP_SHAPE_REPRESENTATION('',(#583),#598);
#607=PRODUCT_DEFINITION('design','',#606,#603);
#608=PRODUCT_DEFINITION_SHAPE('','SHAPE FOR CAD-8512.',#607);
#609=SHAPE_DEFINITION_REPRESENTATION(#608,#599);
ENDSEC;
END-ISO-10303-21;
