ISO-10303-21;
HEADER;
FILE_DESCRIPTION((''),'2;1');
FILE_NAME('CAD-9241','2025-01-16T09:28:54',('creinig-se'),(''),
'CREO PARAMETRIC BY PTC INC, 2022284','CREO PARAMETRIC BY PTC INC, 2022284','');
FILE_SCHEMA(('CONFIG_CONTROL_DESIGN','SHAPE_APPEARANCE_LAYERS_GROUPS'));
ENDSEC;
DATA;
#35=CARTESIAN_POINT('',(0.E0,0.E0,0.E0));
#36=DIRECTION('',(0.E0,-1.E0,0.E0));
#37=DIRECTION('',(0.E0,0.E0,-1.E0));
#38=AXIS2_PLACEMENT_3D('',#35,#36,#37);
#40=DRAUGHTING_PRE_DEFINED_CURVE_FONT('continuous');
#41=CURVE_STYLE('',#40,POSITIVE_LENGTH_MEASURE(2.E-2),#5);
#42=PRESENTATION_STYLE_ASSIGNMENT((#41));
#43=STYLED_ITEM('',(#42),#39);
#44=CARTESIAN_POINT('',(0.E0,0.E0,0.E0));
#45=DIRECTION('',(0.E0,-1.E0,0.E0));
#46=DIRECTION('',(0.E0,0.E0,1.E0));
#47=AXIS2_PLACEMENT_3D('',#44,#45,#46);
#49=CURVE_STYLE('',#40,POSITIVE_LENGTH_MEASURE(2.E-2),#5);
#50=PRESENTATION_STYLE_ASSIGNMENT((#49));
#51=STYLED_ITEM('',(#50),#48);
#52=CARTESIAN_POINT('',(0.E0,-7.860380748502E-1,0.E0));
#53=DIRECTION('',(0.E0,-1.E0,0.E0));
#54=DIRECTION('',(0.E0,0.E0,-1.E0));
#55=AXIS2_PLACEMENT_3D('',#52,#53,#54);
#57=CURVE_STYLE('',#40,POSITIVE_LENGTH_MEASURE(2.E-2),#5);
#58=PRESENTATION_STYLE_ASSIGNMENT((#57));
#59=STYLED_ITEM('',(#58),#56);
#60=CARTESIAN_POINT('',(0.E0,-8.E-1,5.058357306431E0));
#61=DIRECTION('',(-1.E0,0.E0,0.E0));
#62=DIRECTION('',(0.E0,7.913688831609E-1,6.113389328062E-1));
#63=AXIS2_PLACEMENT_3D('',#60,#61,#62);
#65=CURVE_STYLE('',#40,POSITIVE_LENGTH_MEASURE(2.E-2),#5);
#66=PRESENTATION_STYLE_ASSIGNMENT((#65));
#67=STYLED_ITEM('',(#66),#64);
#68=CARTESIAN_POINT('',(0.E0,-7.860380748502E-1,0.E0));
#69=DIRECTION('',(0.E0,-1.E0,0.E0));
#70=DIRECTION('',(-9.392031806079E-2,0.E0,9.955797174789E-1));
#71=AXIS2_PLACEMENT_3D('',#68,#69,#70);
#73=CURVE_STYLE('',#40,POSITIVE_LENGTH_MEASURE(2.E-2),#5);
#74=PRESENTATION_STYLE_ASSIGNMENT((#73));
#75=STYLED_ITEM('',(#74),#72);
#76=CARTESIAN_POINT('',(0.E0,-8.E-1,-5.058357306431E0));
#77=DIRECTION('',(1.E0,0.E0,0.E0));
#78=DIRECTION('',(0.E0,1.745240643725E-2,-9.998476951564E-1));
#79=AXIS2_PLACEMENT_3D('',#76,#77,#78);
#81=CURVE_STYLE('',#40,POSITIVE_LENGTH_MEASURE(2.E-2),#5);
#82=PRESENTATION_STYLE_ASSIGNMENT((#81));
#83=STYLED_ITEM('',(#82),#80);
#84=CARTESIAN_POINT('',(0.E0,-1.669048934712E-1,5.547428452676E0));
#85=CARTESIAN_POINT('',(2.081147278344E-2,-1.669048934712E-1,5.547428452676E0));
#86=CARTESIAN_POINT('',(6.212380850432E-2,-1.685334893753E-1,5.549312420904E0));
#87=CARTESIAN_POINT('',(1.227634673256E-1,-1.757866509497E-1,5.557543060690E0));
#88=CARTESIAN_POINT('',(1.813224408668E-1,-1.879517835723E-1,5.570834924995E0));
#89=CARTESIAN_POINT('',(2.368304620996E-1,-2.051042093202E-1,5.588579064939E0));
#90=CARTESIAN_POINT('',(2.890075248123E-1,-2.275645930191E-1,5.610228682600E0));
#91=CARTESIAN_POINT('',(3.372578134564E-1,-2.555693834211E-1,5.635014714381E0));
#92=CARTESIAN_POINT('',(3.816042196500E-1,-2.898257172194E-1,5.662409281755E0));
#93=CARTESIAN_POINT('',(4.210983355781E-1,-3.302383250830E-1,5.691140939001E0));
#94=CARTESIAN_POINT('',(4.558655908261E-1,-3.775071672749E-1,5.720453160484E0));
#95=CARTESIAN_POINT('',(4.853079619274E-1,-4.312971582387E-1,5.748873114475E0));
#96=CARTESIAN_POINT('',(5.095423910107E-1,-4.920301203355E-1,5.775363106145E0));
#97=CARTESIAN_POINT('',(5.282693239295E-1,-5.590277112739E-1,5.798366608488E0));
#98=CARTESIAN_POINT('',(5.414613381716E-1,-6.315728310642E-1,5.816526241861E0));
#99=CARTESIAN_POINT('',(5.490256018912E-1,-7.078308080220E-1,5.828492374472E0));
#100=CARTESIAN_POINT('',(5.504195929808E-1,-7.597148036548E-1,
5.831858868731E0));
#101=CARTESIAN_POINT('',(5.502073379182E-1,-7.860380748501E-1,
5.832340406736E0));
#103=CURVE_STYLE('',#40,POSITIVE_LENGTH_MEASURE(2.E-2),#5);
#104=PRESENTATION_STYLE_ASSIGNMENT((#103));
#105=STYLED_ITEM('',(#104),#102);
#106=CARTESIAN_POINT('',(5.502073379182E-1,-7.860380748501E-1,
5.832340406736E0));
#107=CARTESIAN_POINT('',(5.456433289924E-1,-1.352053524480E0,5.842694665077E0));
#108=CARTESIAN_POINT('',(5.360807524764E-1,-2.485557574918E0,5.863079488499E0));
#109=CARTESIAN_POINT('',(5.215663275797E-1,-4.190212100969E0,5.894256539058E0));
#110=CARTESIAN_POINT('',(5.116940420644E-1,-5.329580129050E0,5.915456527051E0));
#111=CARTESIAN_POINT('',(5.065253009017E-1,-5.9E0,5.925891356543E0));
#113=CURVE_STYLE('',#40,POSITIVE_LENGTH_MEASURE(2.E-2),#5);
#114=PRESENTATION_STYLE_ASSIGNMENT((#113));
#115=STYLED_ITEM('',(#114),#112);
#116=CARTESIAN_POINT('',(-5.502073379182E-1,-7.860380748501E-1,
5.832340406736E0));
#117=CARTESIAN_POINT('',(-5.506162684274E-1,-7.353236722680E-1,
5.831412675830E0));
#118=CARTESIAN_POINT('',(-5.448227052600E-1,-6.391371559275E-1,
5.820771350511E0));
#119=CARTESIAN_POINT('',(-5.176088825235E-1,-5.077272544776E-1,
5.783801332614E0));
#120=CARTESIAN_POINT('',(-4.713076753715E-1,-3.974206100538E-1,
5.733480626327E0));
#121=CARTESIAN_POINT('',(-4.084448438659E-1,-3.109574220872E-1,
5.679464759187E0));
#122=CARTESIAN_POINT('',(-3.237311077525E-1,-2.433343330716E-1,
5.625554931935E0));
#123=CARTESIAN_POINT('',(-2.300365878207E-1,-1.998748894421E-1,
5.583795235157E0));
#124=CARTESIAN_POINT('',(-1.147886627655E-1,-1.721074963681E-1,
5.553579356284E0));
#125=CARTESIAN_POINT('',(-3.851764583357E-2,-1.669048934712E-1,
5.547428452676E0));
#126=CARTESIAN_POINT('',(0.E0,-1.669048934712E-1,5.547428452676E0));
#128=CURVE_STYLE('',#40,POSITIVE_LENGTH_MEASURE(2.E-2),#5);
#129=PRESENTATION_STYLE_ASSIGNMENT((#128));
#130=STYLED_ITEM('',(#129),#127);
#131=CARTESIAN_POINT('',(-5.502073379182E-1,-7.860380748501E-1,
5.832340406736E0));
#132=CARTESIAN_POINT('',(-5.456236005521E-1,-1.354500189729E0,
5.842739422520E0));
#133=CARTESIAN_POINT('',(-5.355605530609E-1,-2.491254519166E0,
5.863601939434E0));
#134=CARTESIAN_POINT('',(-5.209855461109E-1,-4.195908299554E0,
5.894784972797E0));
#135=CARTESIAN_POINT('',(-5.116718750108E-1,-5.332026474780E0,
5.915501278649E0));
#136=CARTESIAN_POINT('',(-5.065253009017E-1,-5.9E0,5.925891356543E0));
#138=CURVE_STYLE('',#40,POSITIVE_LENGTH_MEASURE(2.E-2),#5);
#139=PRESENTATION_STYLE_ASSIGNMENT((#138));
#140=STYLED_ITEM('',(#139),#137);
#141=CARTESIAN_POINT('',(0.E0,-5.9E0,6.2475E0));
#142=DIRECTION('',(0.E0,-1.E0,0.E0));
#143=DIRECTION('',(-8.442088348361E-1,0.E0,-5.360144057623E-1));
#144=AXIS2_PLACEMENT_3D('',#141,#142,#143);
#146=CURVE_STYLE('',#40,POSITIVE_LENGTH_MEASURE(2.E-2),#5);
#147=PRESENTATION_STYLE_ASSIGNMENT((#146));
#148=STYLED_ITEM('',(#147),#145);
#149=CARTESIAN_POINT('',(0.E0,-5.9E0,0.E0));
#150=DIRECTION('',(0.E0,1.E0,0.E0));
#151=DIRECTION('',(8.516608674260E-2,0.E0,9.963667686495E-1));
#152=AXIS2_PLACEMENT_3D('',#149,#150,#151);
#154=CURVE_STYLE('',#40,POSITIVE_LENGTH_MEASURE(2.E-2),#5);
#155=PRESENTATION_STYLE_ASSIGNMENT((#154));
#156=STYLED_ITEM('',(#155),#153);
#157=CARTESIAN_POINT('',(0.E0,-5.9E0,0.E0));
#158=DIRECTION('',(0.E0,1.E0,0.E0));
#159=DIRECTION('',(0.E0,0.E0,-1.E0));
#160=AXIS2_PLACEMENT_3D('',#157,#158,#159);
#162=CURVE_STYLE('',#40,POSITIVE_LENGTH_MEASURE(2.E-2),#5);
#163=PRESENTATION_STYLE_ASSIGNMENT((#162));
#164=STYLED_ITEM('',(#163),#161);
#165=CARTESIAN_POINT('',(0.E0,-5.9E0,6.2475E0));
#166=DIRECTION('',(0.E0,-1.E0,0.E0));
#167=DIRECTION('',(-6.717076524392E-1,0.E0,-7.408163265308E-1));
#168=AXIS2_PLACEMENT_3D('',#165,#166,#167);
#170=CURVE_STYLE('',#40,POSITIVE_LENGTH_MEASURE(2.E-2),#5);
#171=PRESENTATION_STYLE_ASSIGNMENT((#170));
#172=STYLED_ITEM('',(#171),#169);
#173=CARTESIAN_POINT('',(0.E0,-4.E-1,0.E0));
#174=DIRECTION('',(0.E0,-1.E0,0.E0));
#175=DIRECTION('',(-1.210829477133E-1,0.E0,9.926423926939E-1));
#176=AXIS2_PLACEMENT_3D('',#173,#174,#175);
#178=CURVE_STYLE('',#40,POSITIVE_LENGTH_MEASURE(2.E-2),#5);
#179=PRESENTATION_STYLE_ASSIGNMENT((#178));
#180=STYLED_ITEM('',(#179),#177);
#181=CARTESIAN_POINT('',(0.E0,-5.9E0,0.E0));
#182=DIRECTION('',(0.E0,1.E0,0.E0));
#183=DIRECTION('',(1.210829477133E-1,0.E0,9.926423926939E-1));
#184=AXIS2_PLACEMENT_3D('',#181,#182,#183);
#186=CURVE_STYLE('',#40,POSITIVE_LENGTH_MEASURE(2.E-2),#5);
#187=PRESENTATION_STYLE_ASSIGNMENT((#186));
#188=STYLED_ITEM('',(#187),#185);
#189=DIRECTION('',(0.E0,-1.E0,-1.114260199260E-14));
#190=VECTOR('',#189,5.5E0);
#191=CARTESIAN_POINT('',(-6.717076524395E-1,-4.E-1,5.506683673469E0));
#192=LINE('',#191,#190);
#193=CURVE_STYLE('',#40,POSITIVE_LENGTH_MEASURE(2.E-2),#5);
#194=PRESENTATION_STYLE_ASSIGNMENT((#193));
#195=STYLED_ITEM('',(#194),#192);
#196=CARTESIAN_POINT('',(0.E0,-4.E-1,6.2475E0));
#197=DIRECTION('',(0.E0,1.E0,0.E0));
#198=DIRECTION('',(6.717076524392E-1,0.E0,-7.408163265308E-1));
#199=AXIS2_PLACEMENT_3D('',#196,#197,#198);
#201=CURVE_STYLE('',#40,POSITIVE_LENGTH_MEASURE(2.E-2),#5);
#202=PRESENTATION_STYLE_ASSIGNMENT((#201));
#203=STYLED_ITEM('',(#202),#200);
#204=DIRECTION('',(0.E0,-1.E0,-1.227301089040E-14));
#205=VECTOR('',#204,5.5E0);
#206=CARTESIAN_POINT('',(6.717076524395E-1,-4.E-1,5.506683673469E0));
#207=LINE('',#206,#205);
#208=CURVE_STYLE('',#40,POSITIVE_LENGTH_MEASURE(2.E-2),#5);
#209=PRESENTATION_STYLE_ASSIGNMENT((#208));
#210=STYLED_ITEM('',(#209),#207);
#211=CARTESIAN_POINT('',(0.E0,0.E0,-5.058357306431E0));
#212=CARTESIAN_POINT('',(0.E0,0.E0,5.058357306431E0));
#213=VERTEX_POINT('',#211);
#214=VERTEX_POINT('',#212);
#215=CARTESIAN_POINT('',(0.E0,-7.860380748502E-1,-5.858235462556E0));
#216=VERTEX_POINT('',#215);
#217=CARTESIAN_POINT('',(5.502073379182E-1,-7.860380748502E-1,
5.832340406736E0));
#218=VERTEX_POINT('',#217);
#219=VERTEX_POINT('',#84);
#220=VERTEX_POINT('',#116);
#221=VERTEX_POINT('',#111);
#222=CARTESIAN_POINT('',(-5.065253009017E-1,-5.9E0,5.925891356543E0));
#223=VERTEX_POINT('',#222);
#224=CARTESIAN_POINT('',(0.E0,-5.9E0,-5.9475E0));
#225=VERTEX_POINT('',#224);
#226=CARTESIAN_POINT('',(6.717076524395E-1,-4.E-1,5.506683673469E0));
#227=CARTESIAN_POINT('',(-6.717076524395E-1,-4.E-1,5.506683673469E0));
#228=VERTEX_POINT('',#226);
#229=VERTEX_POINT('',#227);
#230=CARTESIAN_POINT('',(-6.717076524395E-1,-5.9E0,5.506683673469E0));
#231=CARTESIAN_POINT('',(6.717076524395E-1,-5.9E0,5.506683673469E0));
#232=VERTEX_POINT('',#230);
#233=VERTEX_POINT('',#231);
#234=CARTESIAN_POINT('',(0.E0,0.E0,0.E0));
#235=DIRECTION('',(0.E0,1.E0,0.E0));
#236=DIRECTION('',(0.E0,0.E0,-1.E0));
#237=AXIS2_PLACEMENT_3D('',#234,#235,#236);
#238=PLANE('',#237);
#240=ORIENTED_EDGE('',*,*,#239,.T.);
#242=ORIENTED_EDGE('',*,*,#241,.T.);
#243=EDGE_LOOP('',(#240,#242));
#244=FACE_OUTER_BOUND('',#243,.F.);
#245=ADVANCED_FACE('',(#244),#238,.T.);
#246=CARTESIAN_POINT('',(0.E0,-8.E-1,0.E0));
#247=DIRECTION('',(0.E0,-1.E0,0.E0));
#248=DIRECTION('',(0.E0,0.E0,1.E0));
#249=AXIS2_PLACEMENT_3D('',#246,#247,#248);
#250=TOROIDAL_SURFACE('',#249,5.058357306431E0,8.E-1);
#251=ORIENTED_EDGE('',*,*,#239,.F.);
#253=ORIENTED_EDGE('',*,*,#252,.F.);
#255=ORIENTED_EDGE('',*,*,#254,.T.);
#257=ORIENTED_EDGE('',*,*,#256,.F.);
#259=ORIENTED_EDGE('',*,*,#258,.T.);
#260=EDGE_LOOP('',(#251,#253,#255,#257,#259));
#261=FACE_OUTER_BOUND('',#260,.F.);
#262=ADVANCED_FACE('',(#261),#250,.T.);
#263=CARTESIAN_POINT('',(0.E0,-8.E-1,0.E0));
#264=DIRECTION('',(0.E0,-1.E0,0.E0));
#265=DIRECTION('',(0.E0,0.E0,1.E0));
#266=AXIS2_PLACEMENT_3D('',#263,#264,#265);
#267=TOROIDAL_SURFACE('',#266,5.058357306431E0,8.E-1);
#268=ORIENTED_EDGE('',*,*,#241,.F.);
#269=ORIENTED_EDGE('',*,*,#258,.F.);
#271=ORIENTED_EDGE('',*,*,#270,.F.);
#273=ORIENTED_EDGE('',*,*,#272,.T.);
#274=ORIENTED_EDGE('',*,*,#252,.T.);
#275=EDGE_LOOP('',(#268,#269,#271,#273,#274));
#276=FACE_OUTER_BOUND('',#275,.F.);
#277=ADVANCED_FACE('',(#276),#267,.T.);
#278=CARTESIAN_POINT('',(0.E0,-3.033452446736E0,6.2475E0));
#279=DIRECTION('',(0.E0,1.E0,0.E0));
#280=DIRECTION('',(-1.E0,0.E0,0.E0));
#281=AXIS2_PLACEMENT_3D('',#278,#279,#280);
#282=CONICAL_SURFACE('',#281,6.500357736621E-1,1.E0);
#283=ORIENTED_EDGE('',*,*,#256,.T.);
#285=ORIENTED_EDGE('',*,*,#284,.T.);
#287=ORIENTED_EDGE('',*,*,#286,.F.);
#289=ORIENTED_EDGE('',*,*,#288,.F.);
#290=ORIENTED_EDGE('',*,*,#270,.T.);
#291=EDGE_LOOP('',(#283,#285,#287,#289,#290));
#292=FACE_OUTER_BOUND('',#291,.F.);
#293=ADVANCED_FACE('',(#292),#282,.F.);
#294=CARTESIAN_POINT('',(0.E0,-3.343019037425E0,0.E0));
#295=DIRECTION('',(0.E0,-1.E0,0.E0));
#296=DIRECTION('',(0.E0,0.E0,1.E0));
#297=AXIS2_PLACEMENT_3D('',#294,#295,#296);
#298=CONICAL_SURFACE('',#297,5.902867731278E0,1.E0);
#299=ORIENTED_EDGE('',*,*,#254,.F.);
#300=ORIENTED_EDGE('',*,*,#272,.F.);
#301=ORIENTED_EDGE('',*,*,#288,.T.);
#303=ORIENTED_EDGE('',*,*,#302,.F.);
#305=ORIENTED_EDGE('',*,*,#304,.F.);
#306=ORIENTED_EDGE('',*,*,#284,.F.);
#307=EDGE_LOOP('',(#299,#300,#301,#303,#305,#306));
#308=FACE_OUTER_BOUND('',#307,.F.);
#309=ADVANCED_FACE('',(#308),#298,.T.);
#310=CARTESIAN_POINT('',(0.E0,-5.9E0,0.E0));
#311=DIRECTION('',(0.E0,1.E0,0.E0));
#312=DIRECTION('',(0.E0,0.E0,-1.E0));
#313=AXIS2_PLACEMENT_3D('',#310,#311,#312);
#314=PLANE('',#313);
#315=ORIENTED_EDGE('',*,*,#286,.T.);
#316=ORIENTED_EDGE('',*,*,#304,.T.);
#317=ORIENTED_EDGE('',*,*,#302,.T.);
#318=EDGE_LOOP('',(#315,#316,#317));
#319=FACE_OUTER_BOUND('',#318,.F.);
#321=ORIENTED_EDGE('',*,*,#320,.F.);
#323=ORIENTED_EDGE('',*,*,#322,.F.);
#324=EDGE_LOOP('',(#321,#323));
#325=FACE_BOUND('',#324,.F.);
#326=ADVANCED_FACE('',(#319,#325),#314,.F.);
#327=CARTESIAN_POINT('',(0.E0,-4.E-1,0.E0));
#328=DIRECTION('',(0.E0,-1.E0,0.E0));
#329=DIRECTION('',(1.E0,0.E0,0.E0));
#330=AXIS2_PLACEMENT_3D('',#327,#328,#329);
#331=CYLINDRICAL_SURFACE('',#330,5.5475E0);
#333=ORIENTED_EDGE('',*,*,#332,.T.);
#335=ORIENTED_EDGE('',*,*,#334,.T.);
#336=ORIENTED_EDGE('',*,*,#320,.T.);
#338=ORIENTED_EDGE('',*,*,#337,.F.);
#339=EDGE_LOOP('',(#333,#335,#336,#338));
#340=FACE_OUTER_BOUND('',#339,.F.);
#341=ADVANCED_FACE('',(#340),#331,.F.);
#342=CARTESIAN_POINT('',(0.E0,-4.E-1,0.E0));
#343=DIRECTION('',(0.E0,1.E0,0.E0));
#344=DIRECTION('',(0.E0,0.E0,-1.E0));
#345=AXIS2_PLACEMENT_3D('',#342,#343,#344);
#346=PLANE('',#345);
#347=ORIENTED_EDGE('',*,*,#332,.F.);
#349=ORIENTED_EDGE('',*,*,#348,.F.);
#350=EDGE_LOOP('',(#347,#349));
#351=FACE_OUTER_BOUND('',#350,.F.);
#352=ADVANCED_FACE('',(#351),#346,.F.);
#353=CARTESIAN_POINT('',(0.E0,-4.E-1,6.2475E0));
#354=DIRECTION('',(0.E0,-1.E0,0.E0));
#355=DIRECTION('',(1.E0,0.E0,0.E0));
#356=AXIS2_PLACEMENT_3D('',#353,#354,#355);
#357=CYLINDRICAL_SURFACE('',#356,1.E0);
#358=ORIENTED_EDGE('',*,*,#322,.T.);
#359=ORIENTED_EDGE('',*,*,#334,.F.);
#360=ORIENTED_EDGE('',*,*,#348,.T.);
#361=ORIENTED_EDGE('',*,*,#337,.T.);
#362=EDGE_LOOP('',(#358,#359,#360,#361));
#363=FACE_OUTER_BOUND('',#362,.F.);
#364=ADVANCED_FACE('',(#363),#357,.T.);
#367=FILL_AREA_STYLE_COLOUR('',#5);
#368=FILL_AREA_STYLE('',(#367));
#369=SURFACE_STYLE_FILL_AREA(#368);
#370=SURFACE_SIDE_STYLE('',(#369));
#371=SURFACE_STYLE_USAGE(.BOTH.,#370);
#372=PRESENTATION_STYLE_ASSIGNMENT((#371));
#34=STYLED_ITEM('',(#372),#366);
#374=DIMENSIONAL_EXPONENTS(0.E0,0.E0,0.E0,0.E0,0.E0,0.E0,0.E0);
#376=PLANE_ANGLE_MEASURE_WITH_UNIT(PLANE_ANGLE_MEASURE(1.745329251994E-2),#375);
#377=(CONVERSION_BASED_UNIT('DEGREE',#376)NAMED_UNIT(*)PLANE_ANGLE_UNIT());
#379=UNCERTAINTY_MEASURE_WITH_UNIT(LENGTH_MEASURE(1.781369672400E-3),#373,
'closure',
'Maximum model space distance between geometric entities at asserted connectivities');
#380=(GEOMETRIC_REPRESENTATION_CONTEXT(3)GLOBAL_UNCERTAINTY_ASSIGNED_CONTEXT((
#379))GLOBAL_UNIT_ASSIGNED_CONTEXT((#373,#377,#378))REPRESENTATION_CONTEXT
('ID1','3'));
#382=MECHANICAL_DESIGN_GEOMETRIC_PRESENTATION_REPRESENTATION('',(#43,#51,#59,
#67,#75,#83,#105,#115,#130,#140,#148,#156,#164,#172,#180,#188,#195,#203,#210,
#34),#380);
#383=APPLICATION_CONTEXT(
'CONFIGURATION CONTROLLED 3D DESIGNS OF MECHANICAL PARTS AND ASSEMBLIES');
#384=APPLICATION_PROTOCOL_DEFINITION('international standard',
'config_control_design',1994,#383);
#385=DESIGN_CONTEXT('',#383,'design');
#386=MECHANICAL_CONTEXT('',#383,'mechanical');
#387=PRODUCT('CAD-9241','CAD-9241','NOT SPECIFIED',(#386));
#388=PRODUCT_DEFINITION_FORMATION_WITH_SPECIFIED_SOURCE('1','LAST_VERSION',#387,
.MADE.);
#392=PRODUCT_CATEGORY('part','');
#393=PRODUCT_RELATED_PRODUCT_CATEGORY('detail','',(#387));
#394=PRODUCT_CATEGORY_RELATIONSHIP('','',#392,#393);
#395=SECURITY_CLASSIFICATION_LEVEL('unclassified');
#396=SECURITY_CLASSIFICATION('','',#395);
#397=CC_DESIGN_SECURITY_CLASSIFICATION(#396,(#388));
#398=APPROVAL_STATUS('approved');
#399=APPROVAL(#398,'');
#400=CC_DESIGN_APPROVAL(#399,(#396,#388,#389));
#401=CALENDAR_DATE(125,16,1);
#402=COORDINATED_UNIVERSAL_TIME_OFFSET(1,0,.AHEAD.);
#403=LOCAL_TIME(9,28,5.4E1,#402);
#404=DATE_AND_TIME(#401,#403);
#405=APPROVAL_DATE_TIME(#404,#399);
#406=DATE_TIME_ROLE('creation_date');
#407=CC_DESIGN_DATE_AND_TIME_ASSIGNMENT(#404,#406,(#389));
#408=DATE_TIME_ROLE('classification_date');
#409=CC_DESIGN_DATE_AND_TIME_ASSIGNMENT(#404,#408,(#396));
#410=PERSON('UNSPECIFIED','UNSPECIFIED',$,$,$,$);
#411=ORGANIZATION('UNSPECIFIED','UNSPECIFIED','UNSPECIFIED');
#412=PERSON_AND_ORGANIZATION(#410,#411);
#413=APPROVAL_ROLE('approver');
#414=APPROVAL_PERSON_ORGANIZATION(#412,#399,#413);
#415=PERSON_AND_ORGANIZATION_ROLE('creator');
#416=CC_DESIGN_PERSON_AND_ORGANIZATION_ASSIGNMENT(#412,#415,(#388,#389));
#417=PERSON_AND_ORGANIZATION_ROLE('design_supplier');
#418=CC_DESIGN_PERSON_AND_ORGANIZATION_ASSIGNMENT(#412,#417,(#388));
#419=PERSON_AND_ORGANIZATION_ROLE('classification_officer');
#420=CC_DESIGN_PERSON_AND_ORGANIZATION_ASSIGNMENT(#412,#419,(#396));
#421=PERSON_AND_ORGANIZATION_ROLE('design_owner');
#422=CC_DESIGN_PERSON_AND_ORGANIZATION_ASSIGNMENT(#412,#421,(#387));
#1=COLOUR_RGB('',0.E0,0.E0,1.96E-1);
#2=COLOUR_RGB('',0.E0,0.E0,3.14E-1);
#3=COLOUR_RGB('',0.E0,1.96E-1,0.E0);
#4=COLOUR_RGB('',0.E0,3.14E-1,0.E0);
#5=COLOUR_RGB('',0.E0,6.470588235294E-1,5.294117647059E-1);
#6=COLOUR_RGB('',7.8E-2,7.8E-2,7.8E-2);
#7=COLOUR_RGB('',1.18E-1,1.18E-1,4.71E-1);
#8=COLOUR_RGB('',1.57E-1,1.57E-1,1.57E-1);
#9=COLOUR_RGB('',1.96E-1,0.E0,0.E0);
#10=COLOUR_RGB('',1.96E-1,0.E0,1.96E-1);
#11=COLOUR_RGB('',1.96E-1,5.88E-1,1.96E-1);
#12=COLOUR_RGB('',2.35E-1,2.35E-1,2.35E-1);
#13=COLOUR_RGB('',2.35E-1,2.35E-1,5.88E-1);
#14=COLOUR_RGB('',3.14E-1,3.14E-1,3.14E-1);
#15=COLOUR_RGB('',3.27543E-1,1.E0,6.33116E-1);
#16=COLOUR_RGB('',3.92E-1,0.E0,0.E0);
#17=COLOUR_RGB('',3.92E-1,0.E0,3.92E-1);
#18=COLOUR_RGB('',3.92E-1,3.92E-1,3.92E-1);
#19=COLOUR_RGB('',3.92E-1,3.92E-1,8.63E-1);
#20=COLOUR_RGB('',3.92E-1,5.88E-1,3.92E-1);
#21=COLOUR_RGB('',3.92E-1,5.88E-1,8.63E-1);
#22=COLOUR_RGB('',5.01961E-1,1.E0,5.01961E-1);
#23=COLOUR_RGB('',5.5E-1,5.6E-1,7.E-1);
#24=COLOUR_RGB('',5.88E-1,5.88E-1,5.88E-1);
#25=COLOUR_RGB('',5.88E-1,7.84E-1,5.88E-1);
#26=COLOUR_RGB('',6.2E-1,3.1E-1,6.5E-1);
#27=COLOUR_RGB('',6.8E-1,8.5E-1,1.E0);
#28=COLOUR_RGB('',6.952E-1,7.426E-1,7.9E-1);
#29=COLOUR_RGB('',9.8E-1,3.92E-1,0.E0);
#30=COLOUR_RGB('',9.8E-1,5.88E-1,0.E0);
#31=COLOUR_RGB('',9.8E-1,7.84E-1,0.E0);
#32=COLOUR_RGB('',1.E0,3.7E-1,3.8E-1);
#33=DRAUGHTING_PRE_DEFINED_COLOUR('white');
#39=CIRCLE('',#38,5.058357306431E0);
#48=CIRCLE('',#47,5.058357306431E0);
#56=CIRCLE('',#55,5.858235462556E0);
#64=CIRCLE('',#63,8.E-1);
#72=CIRCLE('',#71,5.858235462556E0);
#80=CIRCLE('',#79,8.E-1);
#102=B_SPLINE_CURVE_WITH_KNOTS('',3,(#84,#85,#86,#87,#88,#89,#90,#91,#92,#93,
#94,#95,#96,#97,#98,#99,#100,#101),.UNSPECIFIED.,.F.,.F.,(4,1,1,1,1,1,1,1,1,1,1,
1,1,1,1,4),(0.E0,6.666666666667E-2,1.333333333333E-1,2.E-1,2.666666666667E-1,
3.333333333333E-1,4.E-1,4.666666666667E-1,5.333333333333E-1,6.E-1,
6.666666666667E-1,7.333333333333E-1,8.E-1,8.666666666667E-1,9.333333333333E-1,
1.E0),.UNSPECIFIED.);
#112=B_SPLINE_CURVE_WITH_KNOTS('',3,(#106,#107,#108,#109,#110,#111),
.UNSPECIFIED.,.F.,.F.,(4,1,1,4),(0.E0,3.333333333333E-1,6.666666666667E-1,1.E0),
.UNSPECIFIED.);
#127=B_SPLINE_CURVE_WITH_KNOTS('',3,(#116,#117,#118,#119,#120,#121,#122,#123,
#124,#125,#126),.UNSPECIFIED.,.F.,.F.,(4,1,1,1,1,1,1,1,4),(0.E0,1.25E-1,2.5E-1,
3.75E-1,5.E-1,6.25E-1,7.5E-1,8.75E-1,1.E0),.UNSPECIFIED.);
#137=B_SPLINE_CURVE_WITH_KNOTS('',3,(#131,#132,#133,#134,#135,#136),
.UNSPECIFIED.,.F.,.F.,(4,1,1,4),(0.E0,3.333333333333E-1,6.666666666667E-1,1.E0),
.UNSPECIFIED.);
#145=CIRCLE('',#144,6.000000000001E-1);
#153=CIRCLE('',#152,5.9475E0);
#161=CIRCLE('',#160,5.9475E0);
#169=CIRCLE('',#168,1.E0);
#177=CIRCLE('',#176,5.5475E0);
#185=CIRCLE('',#184,5.5475E0);
#200=CIRCLE('',#199,1.E0);
#239=EDGE_CURVE('',#213,#214,#39,.T.);
#241=EDGE_CURVE('',#214,#213,#48,.T.);
#252=EDGE_CURVE('',#216,#213,#80,.T.);
#254=EDGE_CURVE('',#216,#218,#56,.T.);
#256=EDGE_CURVE('',#219,#218,#102,.T.);
#258=EDGE_CURVE('',#219,#214,#64,.T.);
#270=EDGE_CURVE('',#220,#219,#127,.T.);
#272=EDGE_CURVE('',#220,#216,#72,.T.);
#284=EDGE_CURVE('',#218,#221,#112,.T.);
#286=EDGE_CURVE('',#223,#221,#145,.T.);
#288=EDGE_CURVE('',#220,#223,#137,.T.);
#302=EDGE_CURVE('',#225,#223,#161,.T.);
#304=EDGE_CURVE('',#221,#225,#153,.T.);
#320=EDGE_CURVE('',#233,#232,#185,.T.);
#322=EDGE_CURVE('',#232,#233,#169,.T.);
#332=EDGE_CURVE('',#229,#228,#177,.T.);
#334=EDGE_CURVE('',#228,#233,#207,.T.);
#337=EDGE_CURVE('',#229,#232,#192,.T.);
#348=EDGE_CURVE('',#228,#229,#200,.T.);
#365=CLOSED_SHELL('',(#245,#262,#277,#293,#309,#326,#341,#352,#364));
#366=MANIFOLD_SOLID_BREP('',#365);
#373=(LENGTH_UNIT()NAMED_UNIT(*)SI_UNIT(.MILLI.,.METRE.));
#375=(NAMED_UNIT(*)PLANE_ANGLE_UNIT()SI_UNIT($,.RADIAN.));
#378=(NAMED_UNIT(*)SI_UNIT($,.STERADIAN.)SOLID_ANGLE_UNIT());
#381=ADVANCED_BREP_SHAPE_REPRESENTATION('',(#366),#380);
#389=PRODUCT_DEFINITION('design','',#388,#385);
#390=PRODUCT_DEFINITION_SHAPE('','SHAPE FOR CAD-9241.',#389);
#391=SHAPE_DEFINITION_REPRESENTATION(#390,#381);
ENDSEC;
END-ISO-10303-21;
