ISO-10303-21;
HEADER;
FILE_DESCRIPTION((''),'2;1');
FILE_NAME('AB_12','2013-02-25T',('dburns'),(''),
'PRO/ENGINEER BY PARAMETRIC TECHNOLOGY CORPORATION, 2012230',
'PRO/ENGINEER BY PARAMETRIC TECHNOLOGY CORPORATION, 2012230','');
FILE_SCHEMA(('CONFIG_CONTROL_DESIGN'));
ENDSEC;
DATA;
#1=DIRECTION('',(1.E0,0.E0,0.E0));
#2=VECTOR('',#1,3.2E0);
#3=CARTESIAN_POINT('',(0.E0,3.155E1,-1.59E1));
#4=LINE('',#3,#2);
#5=DIRECTION('',(0.E0,-1.E0,0.E0));
#6=VECTOR('',#5,2.705E1);
#7=CARTESIAN_POINT('',(0.E0,3.155E1,-1.59E1));
#8=LINE('',#7,#6);
#9=CARTESIAN_POINT('',(4.5E0,4.5E0,-1.59E1));
#10=DIRECTION('',(0.E0,0.E0,-1.E0));
#11=DIRECTION('',(0.E0,-1.E0,0.E0));
#12=AXIS2_PLACEMENT_3D('',#9,#10,#11);
#14=DIRECTION('',(1.E0,0.E0,0.E0));
#15=VECTOR('',#14,2.065E1);
#16=CARTESIAN_POINT('',(4.5E0,0.E0,-1.59E1));
#17=LINE('',#16,#15);
#18=DIRECTION('',(0.E0,-1.E0,0.E0));
#19=VECTOR('',#18,3.2E0);
#20=CARTESIAN_POINT('',(2.515E1,3.2E0,-1.59E1));
#21=LINE('',#20,#19);
#22=DIRECTION('',(-1.E0,0.E0,0.E0));
#23=VECTOR('',#22,2.065E1);
#24=CARTESIAN_POINT('',(2.515E1,3.2E0,-1.59E1));
#25=LINE('',#24,#23);
#26=DIRECTION('',(0.E0,1.E0,0.E0));
#27=VECTOR('',#26,2.705E1);
#28=CARTESIAN_POINT('',(3.2E0,4.5E0,-1.59E1));
#29=LINE('',#28,#27);
#30=CARTESIAN_POINT('',(3.2E0,3.155E1,1.565E1));
#31=DIRECTION('',(1.E0,0.E0,0.E0));
#32=DIRECTION('',(0.E0,1.E0,0.E0));
#33=AXIS2_PLACEMENT_3D('',#30,#31,#32);
#35=CARTESIAN_POINT('',(3.2E0,3.155E1,-1.565E1));
#36=DIRECTION('',(1.E0,0.E0,0.E0));
#37=DIRECTION('',(0.E0,0.E0,-1.E0));
#38=AXIS2_PLACEMENT_3D('',#35,#36,#37);
#40=DIRECTION('',(0.E0,0.E0,1.E0));
#41=VECTOR('',#40,3.18E1);
#42=CARTESIAN_POINT('',(3.2E0,4.5E0,-1.59E1));
#43=LINE('',#42,#41);
#44=CARTESIAN_POINT('',(3.2E0,1.43E1,0.E0));
#45=DIRECTION('',(-1.E0,0.E0,0.E0));
#46=DIRECTION('',(0.E0,-1.E0,0.E0));
#47=AXIS2_PLACEMENT_3D('',#44,#45,#46);
#49=CARTESIAN_POINT('',(3.2E0,1.43E1,0.E0));
#50=DIRECTION('',(-1.E0,0.E0,0.E0));
#51=DIRECTION('',(0.E0,1.E0,0.E0));
#52=AXIS2_PLACEMENT_3D('',#49,#50,#51);
#54=CARTESIAN_POINT('',(0.E0,3.155E1,1.565E1));
#55=DIRECTION('',(-1.E0,0.E0,0.E0));
#56=DIRECTION('',(0.E0,-1.421085471520E-14,1.E0));
#57=AXIS2_PLACEMENT_3D('',#54,#55,#56);
#59=DIRECTION('',(0.E0,0.E0,-1.E0));
#60=VECTOR('',#59,3.18E1);
#61=CARTESIAN_POINT('',(0.E0,4.5E0,1.59E1));
#62=LINE('',#61,#60);
#63=CARTESIAN_POINT('',(0.E0,3.155E1,-1.565E1));
#64=DIRECTION('',(-1.E0,0.E0,0.E0));
#65=DIRECTION('',(0.E0,1.E0,1.421085471520E-14));
#66=AXIS2_PLACEMENT_3D('',#63,#64,#65);
#68=DIRECTION('',(0.E0,0.E0,1.E0));
#69=VECTOR('',#68,3.13E1);
#70=CARTESIAN_POINT('',(0.E0,3.18E1,-1.565E1));
#71=LINE('',#70,#69);
#72=CARTESIAN_POINT('',(0.E0,1.43E1,0.E0));
#73=DIRECTION('',(-1.E0,0.E0,0.E0));
#74=DIRECTION('',(0.E0,-1.E0,0.E0));
#75=AXIS2_PLACEMENT_3D('',#72,#73,#74);
#77=CARTESIAN_POINT('',(0.E0,1.43E1,0.E0));
#78=DIRECTION('',(-1.E0,0.E0,0.E0));
#79=DIRECTION('',(0.E0,1.E0,0.E0));
#80=AXIS2_PLACEMENT_3D('',#77,#78,#79);
#82=DIRECTION('',(-1.E0,0.E0,0.E0));
#83=VECTOR('',#82,3.2E0);
#84=CARTESIAN_POINT('',(3.2E0,3.155E1,1.59E1));
#85=LINE('',#84,#83);
#86=DIRECTION('',(0.E0,1.E0,0.E0));
#87=VECTOR('',#86,2.705E1);
#88=CARTESIAN_POINT('',(3.2E0,4.5E0,1.59E1));
#89=LINE('',#88,#87);
#90=DIRECTION('',(-1.E0,0.E0,0.E0));
#91=VECTOR('',#90,2.065E1);
#92=CARTESIAN_POINT('',(2.515E1,3.2E0,1.59E1));
#93=LINE('',#92,#91);
#94=DIRECTION('',(0.E0,1.E0,0.E0));
#95=VECTOR('',#94,3.2E0);
#96=CARTESIAN_POINT('',(2.515E1,0.E0,1.59E1));
#97=LINE('',#96,#95);
#98=DIRECTION('',(1.E0,0.E0,0.E0));
#99=VECTOR('',#98,2.065E1);
#100=CARTESIAN_POINT('',(4.5E0,0.E0,1.59E1));
#101=LINE('',#100,#99);
#102=CARTESIAN_POINT('',(4.5E0,4.5E0,1.59E1));
#103=DIRECTION('',(0.E0,0.E0,1.E0));
#104=DIRECTION('',(-1.E0,0.E0,0.E0));
#105=AXIS2_PLACEMENT_3D('',#102,#103,#104);
#107=DIRECTION('',(0.E0,-1.E0,0.E0));
#108=VECTOR('',#107,2.705E1);
#109=CARTESIAN_POINT('',(0.E0,3.155E1,1.59E1));
#110=LINE('',#109,#108);
#111=CARTESIAN_POINT('',(4.5E0,4.5E0,-1.59E1));
#112=DIRECTION('',(0.E0,0.E0,1.E0));
#113=DIRECTION('',(-1.E0,0.E0,0.E0));
#114=AXIS2_PLACEMENT_3D('',#111,#112,#113);
#116=CARTESIAN_POINT('',(4.5E0,4.5E0,1.59E1));
#117=DIRECTION('',(0.E0,0.E0,-1.E0));
#118=DIRECTION('',(0.E0,-1.E0,0.E0));
#119=AXIS2_PLACEMENT_3D('',#116,#117,#118);
#121=CARTESIAN_POINT('',(2.515E1,3.2E0,1.565E1));
#122=DIRECTION('',(0.E0,1.E0,0.E0));
#123=DIRECTION('',(0.E0,0.E0,1.E0));
#124=AXIS2_PLACEMENT_3D('',#121,#122,#123);
#126=DIRECTION('',(0.E0,0.E0,1.E0));
#127=VECTOR('',#126,3.18E1);
#128=CARTESIAN_POINT('',(4.5E0,3.2E0,-1.59E1));
#129=LINE('',#128,#127);
#130=CARTESIAN_POINT('',(2.515E1,3.2E0,-1.565E1));
#131=DIRECTION('',(0.E0,1.E0,0.E0));
#132=DIRECTION('',(1.E0,0.E0,1.421085471520E-14));
#133=AXIS2_PLACEMENT_3D('',#130,#131,#132);
#135=DIRECTION('',(0.E0,0.E0,1.E0));
#136=VECTOR('',#135,3.13E1);
#137=CARTESIAN_POINT('',(2.54E1,3.2E0,-1.565E1));
#138=LINE('',#137,#136);
#139=CARTESIAN_POINT('',(1.98E1,3.2E0,-9.5E0));
#140=DIRECTION('',(0.E0,1.E0,0.E0));
#141=DIRECTION('',(1.E0,0.E0,0.E0));
#142=AXIS2_PLACEMENT_3D('',#139,#140,#141);
#144=CARTESIAN_POINT('',(1.98E1,3.2E0,-9.5E0));
#145=DIRECTION('',(0.E0,1.E0,0.E0));
#146=DIRECTION('',(-1.E0,0.E0,0.E0));
#147=AXIS2_PLACEMENT_3D('',#144,#145,#146);
#149=CARTESIAN_POINT('',(1.98E1,3.2E0,9.5E0));
#150=DIRECTION('',(0.E0,1.E0,0.E0));
#151=DIRECTION('',(1.E0,0.E0,0.E0));
#152=AXIS2_PLACEMENT_3D('',#149,#150,#151);
#154=CARTESIAN_POINT('',(1.98E1,3.2E0,9.5E0));
#155=DIRECTION('',(0.E0,1.E0,0.E0));
#156=DIRECTION('',(-1.E0,0.E0,0.E0));
#157=AXIS2_PLACEMENT_3D('',#154,#155,#156);
#159=DIRECTION('',(0.E0,1.E0,0.E0));
#160=VECTOR('',#159,3.2E0);
#161=CARTESIAN_POINT('',(2.54E1,0.E0,1.565E1));
#162=LINE('',#161,#160);
#163=DIRECTION('',(0.E0,-1.E0,0.E0));
#164=VECTOR('',#163,3.2E0);
#165=CARTESIAN_POINT('',(2.54E1,3.2E0,-1.565E1));
#166=LINE('',#165,#164);
#167=DIRECTION('',(0.E0,0.E0,1.E0));
#168=VECTOR('',#167,3.13E1);
#169=CARTESIAN_POINT('',(2.54E1,0.E0,-1.565E1));
#170=LINE('',#169,#168);
#171=CARTESIAN_POINT('',(2.515E1,0.E0,1.565E1));
#172=DIRECTION('',(0.E0,-1.E0,0.E0));
#173=DIRECTION('',(1.E0,0.E0,0.E0));
#174=AXIS2_PLACEMENT_3D('',#171,#172,#173);
#176=CARTESIAN_POINT('',(2.515E1,0.E0,-1.565E1));
#177=DIRECTION('',(0.E0,-1.E0,0.E0));
#178=DIRECTION('',(0.E0,0.E0,-1.E0));
#179=AXIS2_PLACEMENT_3D('',#176,#177,#178);
#181=DIRECTION('',(0.E0,0.E0,-1.E0));
#182=VECTOR('',#181,3.18E1);
#183=CARTESIAN_POINT('',(4.5E0,0.E0,1.59E1));
#184=LINE('',#183,#182);
#185=CARTESIAN_POINT('',(1.98E1,0.E0,-9.5E0));
#186=DIRECTION('',(0.E0,1.E0,0.E0));
#187=DIRECTION('',(1.E0,0.E0,0.E0));
#188=AXIS2_PLACEMENT_3D('',#185,#186,#187);
#190=CARTESIAN_POINT('',(1.98E1,0.E0,-9.5E0));
#191=DIRECTION('',(0.E0,1.E0,0.E0));
#192=DIRECTION('',(-1.E0,0.E0,0.E0));
#193=AXIS2_PLACEMENT_3D('',#190,#191,#192);
#195=CARTESIAN_POINT('',(1.98E1,0.E0,9.5E0));
#196=DIRECTION('',(0.E0,1.E0,0.E0));
#197=DIRECTION('',(1.E0,0.E0,0.E0));
#198=AXIS2_PLACEMENT_3D('',#195,#196,#197);
#200=CARTESIAN_POINT('',(1.98E1,0.E0,9.5E0));
#201=DIRECTION('',(0.E0,1.E0,0.E0));
#202=DIRECTION('',(-1.E0,0.E0,0.E0));
#203=AXIS2_PLACEMENT_3D('',#200,#201,#202);
#205=DIRECTION('',(0.E0,-1.E0,0.E0));
#206=VECTOR('',#205,3.2E0);
#207=CARTESIAN_POINT('',(2.22E1,3.2E0,-9.5E0));
#208=LINE('',#207,#206);
#209=DIRECTION('',(0.E0,-1.E0,0.E0));
#210=VECTOR('',#209,3.2E0);
#211=CARTESIAN_POINT('',(1.74E1,3.2E0,-9.5E0));
#212=LINE('',#211,#210);
#213=DIRECTION('',(0.E0,-1.E0,0.E0));
#214=VECTOR('',#213,3.2E0);
#215=CARTESIAN_POINT('',(2.22E1,3.2E0,9.5E0));
#216=LINE('',#215,#214);
#217=DIRECTION('',(0.E0,-1.E0,0.E0));
#218=VECTOR('',#217,3.2E0);
#219=CARTESIAN_POINT('',(1.74E1,3.2E0,9.5E0));
#220=LINE('',#219,#218);
#221=DIRECTION('',(-1.E0,0.E0,0.E0));
#222=VECTOR('',#221,3.2E0);
#223=CARTESIAN_POINT('',(3.2E0,3.18E1,1.565E1));
#224=LINE('',#223,#222);
#225=DIRECTION('',(1.E0,0.E0,0.E0));
#226=VECTOR('',#225,3.2E0);
#227=CARTESIAN_POINT('',(0.E0,3.18E1,-1.565E1));
#228=LINE('',#227,#226);
#229=DIRECTION('',(0.E0,0.E0,1.E0));
#230=VECTOR('',#229,3.13E1);
#231=CARTESIAN_POINT('',(3.2E0,3.18E1,-1.565E1));
#232=LINE('',#231,#230);
#233=DIRECTION('',(-1.E0,0.E0,0.E0));
#234=VECTOR('',#233,3.2E0);
#235=CARTESIAN_POINT('',(3.2E0,7.8E0,0.E0));
#236=LINE('',#235,#234);
#237=DIRECTION('',(-1.E0,0.E0,0.E0));
#238=VECTOR('',#237,3.2E0);
#239=CARTESIAN_POINT('',(3.2E0,2.08E1,0.E0));
#240=LINE('',#239,#238);
#241=CARTESIAN_POINT('',(4.5E0,0.E0,-1.59E1));
#242=CARTESIAN_POINT('',(0.E0,4.5E0,-1.59E1));
#243=VERTEX_POINT('',#241);
#244=VERTEX_POINT('',#242);
#245=CARTESIAN_POINT('',(0.E0,4.5E0,1.59E1));
#246=VERTEX_POINT('',#245);
#247=CARTESIAN_POINT('',(4.5E0,0.E0,1.59E1));
#248=VERTEX_POINT('',#247);
#249=CARTESIAN_POINT('',(3.2E0,4.5E0,-1.59E1));
#250=CARTESIAN_POINT('',(3.2E0,4.5E0,1.59E1));
#251=VERTEX_POINT('',#249);
#252=VERTEX_POINT('',#250);
#253=CARTESIAN_POINT('',(4.5E0,3.2E0,-1.59E1));
#254=CARTESIAN_POINT('',(4.5E0,3.2E0,1.59E1));
#255=VERTEX_POINT('',#253);
#256=VERTEX_POINT('',#254);
#257=CARTESIAN_POINT('',(0.E0,3.155E1,1.59E1));
#258=CARTESIAN_POINT('',(0.E0,3.18E1,1.565E1));
#259=VERTEX_POINT('',#257);
#260=VERTEX_POINT('',#258);
#261=CARTESIAN_POINT('',(3.2E0,3.18E1,1.565E1));
#262=VERTEX_POINT('',#261);
#263=CARTESIAN_POINT('',(3.2E0,3.155E1,1.59E1));
#264=VERTEX_POINT('',#263);
#265=CARTESIAN_POINT('',(3.2E0,3.155E1,-1.59E1));
#266=CARTESIAN_POINT('',(3.2E0,3.18E1,-1.565E1));
#267=VERTEX_POINT('',#265);
#268=VERTEX_POINT('',#266);
#269=CARTESIAN_POINT('',(0.E0,3.18E1,-1.565E1));
#270=VERTEX_POINT('',#269);
#271=CARTESIAN_POINT('',(0.E0,3.155E1,-1.59E1));
#272=VERTEX_POINT('',#271);
#273=CARTESIAN_POINT('',(2.515E1,3.2E0,1.59E1));
#274=CARTESIAN_POINT('',(2.54E1,3.2E0,1.565E1));
#275=VERTEX_POINT('',#273);
#276=VERTEX_POINT('',#274);
#277=CARTESIAN_POINT('',(2.54E1,0.E0,1.565E1));
#278=VERTEX_POINT('',#277);
#279=CARTESIAN_POINT('',(2.515E1,0.E0,1.59E1));
#280=VERTEX_POINT('',#279);
#281=CARTESIAN_POINT('',(2.515E1,0.E0,-1.59E1));
#282=CARTESIAN_POINT('',(2.54E1,0.E0,-1.565E1));
#283=VERTEX_POINT('',#281);
#284=VERTEX_POINT('',#282);
#285=CARTESIAN_POINT('',(2.54E1,3.2E0,-1.565E1));
#286=VERTEX_POINT('',#285);
#287=CARTESIAN_POINT('',(2.515E1,3.2E0,-1.59E1));
#288=VERTEX_POINT('',#287);
#289=CARTESIAN_POINT('',(0.E0,7.8E0,0.E0));
#290=CARTESIAN_POINT('',(0.E0,2.08E1,0.E0));
#291=VERTEX_POINT('',#289);
#292=VERTEX_POINT('',#290);
#293=CARTESIAN_POINT('',(3.2E0,7.8E0,0.E0));
#294=CARTESIAN_POINT('',(3.2E0,2.08E1,0.E0));
#295=VERTEX_POINT('',#293);
#296=VERTEX_POINT('',#294);
#297=CARTESIAN_POINT('',(2.22E1,0.E0,-9.5E0));
#298=CARTESIAN_POINT('',(1.74E1,0.E0,-9.5E0));
#299=VERTEX_POINT('',#297);
#300=VERTEX_POINT('',#298);
#301=CARTESIAN_POINT('',(2.22E1,0.E0,9.5E0));
#302=CARTESIAN_POINT('',(1.74E1,0.E0,9.5E0));
#303=VERTEX_POINT('',#301);
#304=VERTEX_POINT('',#302);
#305=CARTESIAN_POINT('',(2.22E1,3.2E0,-9.5E0));
#306=CARTESIAN_POINT('',(1.74E1,3.2E0,-9.5E0));
#307=VERTEX_POINT('',#305);
#308=VERTEX_POINT('',#306);
#309=CARTESIAN_POINT('',(2.22E1,3.2E0,9.5E0));
#310=CARTESIAN_POINT('',(1.74E1,3.2E0,9.5E0));
#311=VERTEX_POINT('',#309);
#312=VERTEX_POINT('',#310);
#313=CARTESIAN_POINT('',(0.E0,0.E0,-1.59E1));
#314=DIRECTION('',(0.E0,0.E0,1.E0));
#315=DIRECTION('',(1.E0,0.E0,0.E0));
#316=AXIS2_PLACEMENT_3D('',#313,#314,#315);
#317=PLANE('',#316);
#319=ORIENTED_EDGE('',*,*,#318,.F.);
#321=ORIENTED_EDGE('',*,*,#320,.T.);
#323=ORIENTED_EDGE('',*,*,#322,.F.);
#325=ORIENTED_EDGE('',*,*,#324,.T.);
#327=ORIENTED_EDGE('',*,*,#326,.F.);
#329=ORIENTED_EDGE('',*,*,#328,.T.);
#331=ORIENTED_EDGE('',*,*,#330,.F.);
#333=ORIENTED_EDGE('',*,*,#332,.T.);
#334=EDGE_LOOP('',(#319,#321,#323,#325,#327,#329,#331,#333));
#335=FACE_OUTER_BOUND('',#334,.F.);
#336=ADVANCED_FACE('',(#335),#317,.F.);
#337=CARTESIAN_POINT('',(-3.311144E1,3.155E1,-1.565E1));
#338=DIRECTION('',(1.E0,0.E0,0.E0));
#339=DIRECTION('',(0.E0,0.E0,-1.E0));
#340=AXIS2_PLACEMENT_3D('',#337,#338,#339);
#341=CYLINDRICAL_SURFACE('',#340,2.5E-1);
#343=ORIENTED_EDGE('',*,*,#342,.T.);
#345=ORIENTED_EDGE('',*,*,#344,.F.);
#347=ORIENTED_EDGE('',*,*,#346,.T.);
#348=ORIENTED_EDGE('',*,*,#318,.T.);
#349=EDGE_LOOP('',(#343,#345,#347,#348));
#350=FACE_OUTER_BOUND('',#349,.F.);
#351=ADVANCED_FACE('',(#350),#341,.T.);
#352=CARTESIAN_POINT('',(3.2E0,3.2E0,-1.59E1));
#353=DIRECTION('',(1.E0,0.E0,0.E0));
#354=DIRECTION('',(0.E0,1.E0,0.E0));
#355=AXIS2_PLACEMENT_3D('',#352,#353,#354);
#356=PLANE('',#355);
#358=ORIENTED_EDGE('',*,*,#357,.F.);
#360=ORIENTED_EDGE('',*,*,#359,.F.);
#361=ORIENTED_EDGE('',*,*,#342,.F.);
#362=ORIENTED_EDGE('',*,*,#332,.F.);
#364=ORIENTED_EDGE('',*,*,#363,.T.);
#366=ORIENTED_EDGE('',*,*,#365,.T.);
#367=EDGE_LOOP('',(#358,#360,#361,#362,#364,#366));
#368=FACE_OUTER_BOUND('',#367,.F.);
#370=ORIENTED_EDGE('',*,*,#369,.F.);
#372=ORIENTED_EDGE('',*,*,#371,.F.);
#373=EDGE_LOOP('',(#370,#372));
#374=FACE_BOUND('',#373,.F.);
#375=ADVANCED_FACE('',(#368,#374),#356,.T.);
#376=CARTESIAN_POINT('',(5.851144E1,3.155E1,1.565E1));
#377=DIRECTION('',(-1.E0,0.E0,0.E0));
#378=DIRECTION('',(0.E0,0.E0,1.E0));
#379=AXIS2_PLACEMENT_3D('',#376,#377,#378);
#380=CYLINDRICAL_SURFACE('',#379,2.5E-1);
#382=ORIENTED_EDGE('',*,*,#381,.T.);
#384=ORIENTED_EDGE('',*,*,#383,.F.);
#385=ORIENTED_EDGE('',*,*,#357,.T.);
#387=ORIENTED_EDGE('',*,*,#386,.T.);
#388=EDGE_LOOP('',(#382,#384,#385,#387));
#389=FACE_OUTER_BOUND('',#388,.F.);
#390=ADVANCED_FACE('',(#389),#380,.T.);
#391=CARTESIAN_POINT('',(0.E0,3.18E1,-1.59E1));
#392=DIRECTION('',(-1.E0,0.E0,0.E0));
#393=DIRECTION('',(0.E0,-1.E0,0.E0));
#394=AXIS2_PLACEMENT_3D('',#391,#392,#393);
#395=PLANE('',#394);
#396=ORIENTED_EDGE('',*,*,#381,.F.);
#398=ORIENTED_EDGE('',*,*,#397,.T.);
#400=ORIENTED_EDGE('',*,*,#399,.T.);
#401=ORIENTED_EDGE('',*,*,#320,.F.);
#402=ORIENTED_EDGE('',*,*,#346,.F.);
#404=ORIENTED_EDGE('',*,*,#403,.T.);
#405=EDGE_LOOP('',(#396,#398,#400,#401,#402,#404));
#406=FACE_OUTER_BOUND('',#405,.F.);
#408=ORIENTED_EDGE('',*,*,#407,.T.);
#410=ORIENTED_EDGE('',*,*,#409,.T.);
#411=EDGE_LOOP('',(#408,#410));
#412=FACE_BOUND('',#411,.F.);
#413=ADVANCED_FACE('',(#406,#412),#395,.T.);
#414=CARTESIAN_POINT('',(0.E0,0.E0,1.59E1));
#415=DIRECTION('',(0.E0,0.E0,1.E0));
#416=DIRECTION('',(1.E0,0.E0,0.E0));
#417=AXIS2_PLACEMENT_3D('',#414,#415,#416);
#418=PLANE('',#417);
#419=ORIENTED_EDGE('',*,*,#386,.F.);
#420=ORIENTED_EDGE('',*,*,#365,.F.);
#422=ORIENTED_EDGE('',*,*,#421,.F.);
#424=ORIENTED_EDGE('',*,*,#423,.F.);
#426=ORIENTED_EDGE('',*,*,#425,.F.);
#428=ORIENTED_EDGE('',*,*,#427,.F.);
#430=ORIENTED_EDGE('',*,*,#429,.F.);
#431=ORIENTED_EDGE('',*,*,#397,.F.);
#432=EDGE_LOOP('',(#419,#420,#422,#424,#426,#428,#430,#431));
#433=FACE_OUTER_BOUND('',#432,.F.);
#434=ADVANCED_FACE('',(#433),#418,.T.);
#435=CARTESIAN_POINT('',(4.5E0,4.5E0,-5.735448E1));
#436=DIRECTION('',(0.E0,0.E0,1.E0));
#437=DIRECTION('',(-1.E0,0.E0,0.E0));
#438=AXIS2_PLACEMENT_3D('',#435,#436,#437);
#439=CYLINDRICAL_SURFACE('',#438,1.3E0);
#440=ORIENTED_EDGE('',*,*,#363,.F.);
#441=ORIENTED_EDGE('',*,*,#330,.T.);
#443=ORIENTED_EDGE('',*,*,#442,.T.);
#444=ORIENTED_EDGE('',*,*,#421,.T.);
#445=EDGE_LOOP('',(#440,#441,#443,#444));
#446=FACE_OUTER_BOUND('',#445,.F.);
#447=ADVANCED_FACE('',(#446),#439,.F.);
#448=CARTESIAN_POINT('',(2.54E1,3.2E0,-1.59E1));
#449=DIRECTION('',(0.E0,1.E0,0.E0));
#450=DIRECTION('',(-1.E0,0.E0,0.E0));
#451=AXIS2_PLACEMENT_3D('',#448,#449,#450);
#452=PLANE('',#451);
#454=ORIENTED_EDGE('',*,*,#453,.F.);
#455=ORIENTED_EDGE('',*,*,#423,.T.);
#456=ORIENTED_EDGE('',*,*,#442,.F.);
#457=ORIENTED_EDGE('',*,*,#328,.F.);
#459=ORIENTED_EDGE('',*,*,#458,.F.);
#461=ORIENTED_EDGE('',*,*,#460,.T.);
#462=EDGE_LOOP('',(#454,#455,#456,#457,#459,#461));
#463=FACE_OUTER_BOUND('',#462,.F.);
#465=ORIENTED_EDGE('',*,*,#464,.T.);
#467=ORIENTED_EDGE('',*,*,#466,.T.);
#468=EDGE_LOOP('',(#465,#467));
#469=FACE_BOUND('',#468,.F.);
#471=ORIENTED_EDGE('',*,*,#470,.T.);
#473=ORIENTED_EDGE('',*,*,#472,.T.);
#474=EDGE_LOOP('',(#471,#473));
#475=FACE_BOUND('',#474,.F.);
#476=ADVANCED_FACE('',(#463,#469,#475),#452,.T.);
#477=CARTESIAN_POINT('',(2.515E1,-4.145448E1,1.565E1));
#478=DIRECTION('',(0.E0,1.E0,0.E0));
#479=DIRECTION('',(0.E0,0.E0,1.E0));
#480=AXIS2_PLACEMENT_3D('',#477,#478,#479);
#481=CYLINDRICAL_SURFACE('',#480,2.5E-1);
#482=ORIENTED_EDGE('',*,*,#453,.T.);
#484=ORIENTED_EDGE('',*,*,#483,.F.);
#486=ORIENTED_EDGE('',*,*,#485,.T.);
#487=ORIENTED_EDGE('',*,*,#425,.T.);
#488=EDGE_LOOP('',(#482,#484,#486,#487));
#489=FACE_OUTER_BOUND('',#488,.F.);
#490=ADVANCED_FACE('',(#489),#481,.T.);
#491=CARTESIAN_POINT('',(2.54E1,0.E0,-1.59E1));
#492=DIRECTION('',(1.E0,0.E0,0.E0));
#493=DIRECTION('',(0.E0,1.E0,0.E0));
#494=AXIS2_PLACEMENT_3D('',#491,#492,#493);
#495=PLANE('',#494);
#496=ORIENTED_EDGE('',*,*,#483,.T.);
#497=ORIENTED_EDGE('',*,*,#460,.F.);
#499=ORIENTED_EDGE('',*,*,#498,.T.);
#501=ORIENTED_EDGE('',*,*,#500,.T.);
#502=EDGE_LOOP('',(#496,#497,#499,#501));
#503=FACE_OUTER_BOUND('',#502,.F.);
#504=ADVANCED_FACE('',(#503),#495,.T.);
#505=CARTESIAN_POINT('',(2.515E1,7.325448E1,-1.565E1));
#506=DIRECTION('',(0.E0,-1.E0,0.E0));
#507=DIRECTION('',(0.E0,0.E0,-1.E0));
#508=AXIS2_PLACEMENT_3D('',#505,#506,#507);
#509=CYLINDRICAL_SURFACE('',#508,2.5E-1);
#511=ORIENTED_EDGE('',*,*,#510,.T.);
#512=ORIENTED_EDGE('',*,*,#498,.F.);
#513=ORIENTED_EDGE('',*,*,#458,.T.);
#514=ORIENTED_EDGE('',*,*,#326,.T.);
#515=EDGE_LOOP('',(#511,#512,#513,#514));
#516=FACE_OUTER_BOUND('',#515,.F.);
#517=ADVANCED_FACE('',(#516),#509,.T.);
#518=CARTESIAN_POINT('',(0.E0,0.E0,-1.59E1));
#519=DIRECTION('',(0.E0,-1.E0,0.E0));
#520=DIRECTION('',(1.E0,0.E0,0.E0));
#521=AXIS2_PLACEMENT_3D('',#518,#519,#520);
#522=PLANE('',#521);
#523=ORIENTED_EDGE('',*,*,#485,.F.);
#524=ORIENTED_EDGE('',*,*,#500,.F.);
#525=ORIENTED_EDGE('',*,*,#510,.F.);
#526=ORIENTED_EDGE('',*,*,#324,.F.);
#528=ORIENTED_EDGE('',*,*,#527,.F.);
#529=ORIENTED_EDGE('',*,*,#427,.T.);
#530=EDGE_LOOP('',(#523,#524,#525,#526,#528,#529));
#531=FACE_OUTER_BOUND('',#530,.F.);
#533=ORIENTED_EDGE('',*,*,#532,.F.);
#535=ORIENTED_EDGE('',*,*,#534,.F.);
#536=EDGE_LOOP('',(#533,#535));
#537=FACE_BOUND('',#536,.F.);
#539=ORIENTED_EDGE('',*,*,#538,.F.);
#541=ORIENTED_EDGE('',*,*,#540,.F.);
#542=EDGE_LOOP('',(#539,#541));
#543=FACE_BOUND('',#542,.F.);
#544=ADVANCED_FACE('',(#531,#537,#543),#522,.T.);
#545=CARTESIAN_POINT('',(4.5E0,4.5E0,5.735448E1));
#546=DIRECTION('',(0.E0,0.E0,-1.E0));
#547=DIRECTION('',(0.E0,-1.E0,0.E0));
#548=AXIS2_PLACEMENT_3D('',#545,#546,#547);
#549=CYLINDRICAL_SURFACE('',#548,4.5E0);
#550=ORIENTED_EDGE('',*,*,#322,.T.);
#551=ORIENTED_EDGE('',*,*,#399,.F.);
#552=ORIENTED_EDGE('',*,*,#429,.T.);
#553=ORIENTED_EDGE('',*,*,#527,.T.);
#554=EDGE_LOOP('',(#550,#551,#552,#553));
#555=FACE_OUTER_BOUND('',#554,.F.);
#556=ADVANCED_FACE('',(#555),#549,.T.);
#557=CARTESIAN_POINT('',(1.98E1,3.2E0,-9.5E0));
#558=DIRECTION('',(0.E0,1.E0,0.E0));
#559=DIRECTION('',(1.E0,0.E0,0.E0));
#560=AXIS2_PLACEMENT_3D('',#557,#558,#559);
#561=CYLINDRICAL_SURFACE('',#560,2.4E0);
#562=ORIENTED_EDGE('',*,*,#532,.T.);
#564=ORIENTED_EDGE('',*,*,#563,.F.);
#565=ORIENTED_EDGE('',*,*,#464,.F.);
#567=ORIENTED_EDGE('',*,*,#566,.T.);
#568=EDGE_LOOP('',(#562,#564,#565,#567));
#569=FACE_OUTER_BOUND('',#568,.F.);
#570=ADVANCED_FACE('',(#569),#561,.F.);
#571=CARTESIAN_POINT('',(1.98E1,3.2E0,-9.5E0));
#572=DIRECTION('',(0.E0,1.E0,0.E0));
#573=DIRECTION('',(1.E0,0.E0,0.E0));
#574=AXIS2_PLACEMENT_3D('',#571,#572,#573);
#575=CYLINDRICAL_SURFACE('',#574,2.4E0);
#576=ORIENTED_EDGE('',*,*,#534,.T.);
#577=ORIENTED_EDGE('',*,*,#566,.F.);
#578=ORIENTED_EDGE('',*,*,#466,.F.);
#579=ORIENTED_EDGE('',*,*,#563,.T.);
#580=EDGE_LOOP('',(#576,#577,#578,#579));
#581=FACE_OUTER_BOUND('',#580,.F.);
#582=ADVANCED_FACE('',(#581),#575,.F.);
#583=CARTESIAN_POINT('',(1.98E1,3.2E0,9.5E0));
#584=DIRECTION('',(0.E0,1.E0,0.E0));
#585=DIRECTION('',(1.E0,0.E0,0.E0));
#586=AXIS2_PLACEMENT_3D('',#583,#584,#585);
#587=CYLINDRICAL_SURFACE('',#586,2.4E0);
#588=ORIENTED_EDGE('',*,*,#538,.T.);
#590=ORIENTED_EDGE('',*,*,#589,.F.);
#591=ORIENTED_EDGE('',*,*,#470,.F.);
#593=ORIENTED_EDGE('',*,*,#592,.T.);
#594=EDGE_LOOP('',(#588,#590,#591,#593));
#595=FACE_OUTER_BOUND('',#594,.F.);
#596=ADVANCED_FACE('',(#595),#587,.F.);
#597=CARTESIAN_POINT('',(1.98E1,3.2E0,9.5E0));
#598=DIRECTION('',(0.E0,1.E0,0.E0));
#599=DIRECTION('',(1.E0,0.E0,0.E0));
#600=AXIS2_PLACEMENT_3D('',#597,#598,#599);
#601=CYLINDRICAL_SURFACE('',#600,2.4E0);
#602=ORIENTED_EDGE('',*,*,#540,.T.);
#603=ORIENTED_EDGE('',*,*,#592,.F.);
#604=ORIENTED_EDGE('',*,*,#472,.F.);
#605=ORIENTED_EDGE('',*,*,#589,.T.);
#606=EDGE_LOOP('',(#602,#603,#604,#605));
#607=FACE_OUTER_BOUND('',#606,.F.);
#608=ADVANCED_FACE('',(#607),#601,.F.);
#609=CARTESIAN_POINT('',(3.2E0,3.18E1,-1.59E1));
#610=DIRECTION('',(0.E0,1.E0,0.E0));
#611=DIRECTION('',(-1.E0,0.E0,0.E0));
#612=AXIS2_PLACEMENT_3D('',#609,#610,#611);
#613=PLANE('',#612);
#614=ORIENTED_EDGE('',*,*,#383,.T.);
#615=ORIENTED_EDGE('',*,*,#403,.F.);
#616=ORIENTED_EDGE('',*,*,#344,.T.);
#617=ORIENTED_EDGE('',*,*,#359,.T.);
#618=EDGE_LOOP('',(#614,#615,#616,#617));
#619=FACE_OUTER_BOUND('',#618,.F.);
#620=ADVANCED_FACE('',(#619),#613,.T.);
#621=CARTESIAN_POINT('',(3.2E0,1.43E1,0.E0));
#622=DIRECTION('',(-1.E0,0.E0,0.E0));
#623=DIRECTION('',(0.E0,-1.E0,0.E0));
#624=AXIS2_PLACEMENT_3D('',#621,#622,#623);
#625=CYLINDRICAL_SURFACE('',#624,6.5E0);
#626=ORIENTED_EDGE('',*,*,#407,.F.);
#628=ORIENTED_EDGE('',*,*,#627,.F.);
#629=ORIENTED_EDGE('',*,*,#369,.T.);
#631=ORIENTED_EDGE('',*,*,#630,.T.);
#632=EDGE_LOOP('',(#626,#628,#629,#631));
#633=FACE_OUTER_BOUND('',#632,.F.);
#634=ADVANCED_FACE('',(#633),#625,.F.);
#635=CARTESIAN_POINT('',(3.2E0,1.43E1,0.E0));
#636=DIRECTION('',(-1.E0,0.E0,0.E0));
#637=DIRECTION('',(0.E0,-1.E0,0.E0));
#638=AXIS2_PLACEMENT_3D('',#635,#636,#637);
#639=CYLINDRICAL_SURFACE('',#638,6.5E0);
#640=ORIENTED_EDGE('',*,*,#409,.F.);
#641=ORIENTED_EDGE('',*,*,#630,.F.);
#642=ORIENTED_EDGE('',*,*,#371,.T.);
#643=ORIENTED_EDGE('',*,*,#627,.T.);
#644=EDGE_LOOP('',(#640,#641,#642,#643));
#645=FACE_OUTER_BOUND('',#644,.F.);
#646=ADVANCED_FACE('',(#645),#639,.F.);
#647=CLOSED_SHELL('',(#336,#351,#375,#390,#413,#434,#447,#476,#490,#504,#517,
#544,#556,#570,#582,#596,#608,#620,#634,#646));
#648=MANIFOLD_SOLID_BREP('',#647);
#650=DIMENSIONAL_EXPONENTS(0.E0,0.E0,0.E0,0.E0,0.E0,0.E0,0.E0);
#652=PLANE_ANGLE_MEASURE_WITH_UNIT(PLANE_ANGLE_MEASURE(1.745329251994E-2),#651);
#653=(CONVERSION_BASED_UNIT('DEGREE',#652)NAMED_UNIT(*)PLANE_ANGLE_UNIT());
#655=UNCERTAINTY_MEASURE_WITH_UNIT(LENGTH_MEASURE(5.164713538105E-3),#649,
'closure',
'Maximum model space distance between geometric entities at asserted connectivities');
#656=(GEOMETRIC_REPRESENTATION_CONTEXT(3)GLOBAL_UNCERTAINTY_ASSIGNED_CONTEXT((
#655))GLOBAL_UNIT_ASSIGNED_CONTEXT((#649,#653,#654))REPRESENTATION_CONTEXT
('ID1','3'));
#658=APPLICATION_CONTEXT(
'CONFIGURATION CONTROLLED 3D DESIGNS OF MECHANICAL PARTS AND ASSEMBLIES');
#659=APPLICATION_PROTOCOL_DEFINITION('international standard',
'config_control_design',1994,#658);
#660=DESIGN_CONTEXT('',#658,'design');
#661=MECHANICAL_CONTEXT('',#658,'mechanical');
#662=PRODUCT('AB_12','AB_12','NOT SPECIFIED',(#661));
#663=PRODUCT_DEFINITION_FORMATION_WITH_SPECIFIED_SOURCE('3','LAST_VERSION',#662,
.MADE.);
#667=PRODUCT_CATEGORY('part','');
#668=PRODUCT_RELATED_PRODUCT_CATEGORY('detail','',(#662));
#669=PRODUCT_CATEGORY_RELATIONSHIP('','',#667,#668);
#670=SECURITY_CLASSIFICATION_LEVEL('unclassified');
#671=SECURITY_CLASSIFICATION('','',#670);
#672=CC_DESIGN_SECURITY_CLASSIFICATION(#671,(#663));
#673=APPROVAL_STATUS('approved');
#674=APPROVAL(#673,'');
#675=CC_DESIGN_APPROVAL(#674,(#671,#663,#664));
#676=CALENDAR_DATE(113,25,2);
#677=COORDINATED_UNIVERSAL_TIME_OFFSET(5,0,.BEHIND.);
#678=LOCAL_TIME(13,46,5.4E1,#677);
#679=DATE_AND_TIME(#676,#678);
#680=APPROVAL_DATE_TIME(#679,#674);
#681=DATE_TIME_ROLE('creation_date');
#682=CC_DESIGN_DATE_AND_TIME_ASSIGNMENT(#679,#681,(#664));
#683=DATE_TIME_ROLE('classification_date');
#684=CC_DESIGN_DATE_AND_TIME_ASSIGNMENT(#679,#683,(#671));
#685=PERSON('UNSPECIFIED','UNSPECIFIED',$,$,$,$);
#686=ORGANIZATION('UNSPECIFIED','UNSPECIFIED','UNSPECIFIED');
#687=PERSON_AND_ORGANIZATION(#685,#686);
#688=APPROVAL_ROLE('approver');
#689=APPROVAL_PERSON_ORGANIZATION(#687,#674,#688);
#690=PERSON_AND_ORGANIZATION_ROLE('creator');
#691=CC_DESIGN_PERSON_AND_ORGANIZATION_ASSIGNMENT(#687,#690,(#663,#664));
#692=PERSON_AND_ORGANIZATION_ROLE('design_supplier');
#693=CC_DESIGN_PERSON_AND_ORGANIZATION_ASSIGNMENT(#687,#692,(#663));
#694=PERSON_AND_ORGANIZATION_ROLE('classification_officer');
#695=CC_DESIGN_PERSON_AND_ORGANIZATION_ASSIGNMENT(#687,#694,(#671));
#696=PERSON_AND_ORGANIZATION_ROLE('design_owner');
#697=CC_DESIGN_PERSON_AND_ORGANIZATION_ASSIGNMENT(#687,#696,(#662));
#13=CIRCLE('',#12,4.5E0);
#34=CIRCLE('',#33,2.5E-1);
#39=CIRCLE('',#38,2.5E-1);
#48=CIRCLE('',#47,6.5E0);
#53=CIRCLE('',#52,6.5E0);
#58=CIRCLE('',#57,2.5E-1);
#67=CIRCLE('',#66,2.5E-1);
#76=CIRCLE('',#75,6.5E0);
#81=CIRCLE('',#80,6.5E0);
#106=CIRCLE('',#105,4.5E0);
#115=CIRCLE('',#114,1.3E0);
#120=CIRCLE('',#119,1.3E0);
#125=CIRCLE('',#124,2.5E-1);
#134=CIRCLE('',#133,2.5E-1);
#143=CIRCLE('',#142,2.4E0);
#148=CIRCLE('',#147,2.4E0);
#153=CIRCLE('',#152,2.4E0);
#158=CIRCLE('',#157,2.4E0);
#175=CIRCLE('',#174,2.5E-1);
#180=CIRCLE('',#179,2.5E-1);
#189=CIRCLE('',#188,2.4E0);
#194=CIRCLE('',#193,2.4E0);
#199=CIRCLE('',#198,2.4E0);
#204=CIRCLE('',#203,2.4E0);
#318=EDGE_CURVE('',#272,#267,#4,.T.);
#320=EDGE_CURVE('',#272,#244,#8,.T.);
#322=EDGE_CURVE('',#243,#244,#13,.T.);
#324=EDGE_CURVE('',#243,#283,#17,.T.);
#326=EDGE_CURVE('',#288,#283,#21,.T.);
#328=EDGE_CURVE('',#288,#255,#25,.T.);
#330=EDGE_CURVE('',#251,#255,#115,.T.);
#332=EDGE_CURVE('',#251,#267,#29,.T.);
#342=EDGE_CURVE('',#267,#268,#39,.T.);
#344=EDGE_CURVE('',#270,#268,#228,.T.);
#346=EDGE_CURVE('',#270,#272,#67,.T.);
#357=EDGE_CURVE('',#262,#264,#34,.T.);
#359=EDGE_CURVE('',#268,#262,#232,.T.);
#363=EDGE_CURVE('',#251,#252,#43,.T.);
#365=EDGE_CURVE('',#252,#264,#89,.T.);
#369=EDGE_CURVE('',#295,#296,#48,.T.);
#371=EDGE_CURVE('',#296,#295,#53,.T.);
#381=EDGE_CURVE('',#259,#260,#58,.T.);
#383=EDGE_CURVE('',#262,#260,#224,.T.);
#386=EDGE_CURVE('',#264,#259,#85,.T.);
#397=EDGE_CURVE('',#259,#246,#110,.T.);
#399=EDGE_CURVE('',#246,#244,#62,.T.);
#403=EDGE_CURVE('',#270,#260,#71,.T.);
#407=EDGE_CURVE('',#291,#292,#76,.T.);
#409=EDGE_CURVE('',#292,#291,#81,.T.);
#421=EDGE_CURVE('',#256,#252,#120,.T.);
#423=EDGE_CURVE('',#275,#256,#93,.T.);
#425=EDGE_CURVE('',#280,#275,#97,.T.);
#427=EDGE_CURVE('',#248,#280,#101,.T.);
#429=EDGE_CURVE('',#246,#248,#106,.T.);
#442=EDGE_CURVE('',#255,#256,#129,.T.);
#453=EDGE_CURVE('',#275,#276,#125,.T.);
#458=EDGE_CURVE('',#286,#288,#134,.T.);
#460=EDGE_CURVE('',#286,#276,#138,.T.);
#464=EDGE_CURVE('',#307,#308,#143,.T.);
#466=EDGE_CURVE('',#308,#307,#148,.T.);
#470=EDGE_CURVE('',#311,#312,#153,.T.);
#472=EDGE_CURVE('',#312,#311,#158,.T.);
#483=EDGE_CURVE('',#278,#276,#162,.T.);
#485=EDGE_CURVE('',#278,#280,#175,.T.);
#498=EDGE_CURVE('',#286,#284,#166,.T.);
#500=EDGE_CURVE('',#284,#278,#170,.T.);
#510=EDGE_CURVE('',#283,#284,#180,.T.);
#527=EDGE_CURVE('',#248,#243,#184,.T.);
#532=EDGE_CURVE('',#299,#300,#189,.T.);
#534=EDGE_CURVE('',#300,#299,#194,.T.);
#538=EDGE_CURVE('',#303,#304,#199,.T.);
#540=EDGE_CURVE('',#304,#303,#204,.T.);
#563=EDGE_CURVE('',#308,#300,#212,.T.);
#566=EDGE_CURVE('',#307,#299,#208,.T.);
#589=EDGE_CURVE('',#312,#304,#220,.T.);
#592=EDGE_CURVE('',#311,#303,#216,.T.);
#627=EDGE_CURVE('',#295,#291,#236,.T.);
#630=EDGE_CURVE('',#296,#292,#240,.T.);
#649=(LENGTH_UNIT()NAMED_UNIT(*)SI_UNIT(.MILLI.,.METRE.));
#651=(NAMED_UNIT(*)PLANE_ANGLE_UNIT()SI_UNIT($,.RADIAN.));
#654=(NAMED_UNIT(*)SI_UNIT($,.STERADIAN.)SOLID_ANGLE_UNIT());
#657=ADVANCED_BREP_SHAPE_REPRESENTATION('',(#648),#656);
#664=PRODUCT_DEFINITION('design','',#663,#660);
#665=PRODUCT_DEFINITION_SHAPE('','SHAPE FOR AB_12.',#664);
#666=SHAPE_DEFINITION_REPRESENTATION(#665,#657);
ENDSEC;
END-ISO-10303-21;
