ISO-10303-21;
HEADER;
FILE_DESCRIPTION((''),'2;1');
FILE_NAME('104-4393','2016-07-21T',('rsajovie'),(''),
'PRO/ENGINEER BY PARAMETRIC TECHNOLOGY CORPORATION, 2015440',
'PRO/ENGINEER BY PARAMETRIC TECHNOLOGY CORPORATION, 2015440','');
FILE_SCHEMA(('CONFIG_CONTROL_DESIGN'));
ENDSEC;
DATA;
#35=CARTESIAN_POINT('',(9.05E1,-1.4E2,-6.E1));
#36=DIRECTION('',(0.E0,1.E0,0.E0));
#37=DIRECTION('',(-1.E0,0.E0,0.E0));
#38=AXIS2_PLACEMENT_3D('',#35,#36,#37);
#40=CARTESIAN_POINT('',(9.05E1,-1.4E2,-6.E1));
#41=DIRECTION('',(0.E0,1.E0,0.E0));
#42=DIRECTION('',(1.E0,0.E0,0.E0));
#43=AXIS2_PLACEMENT_3D('',#40,#41,#42);
#45=CARTESIAN_POINT('',(9.05E1,-1.4E2,6.E1));
#46=DIRECTION('',(0.E0,1.E0,0.E0));
#47=DIRECTION('',(-1.E0,0.E0,0.E0));
#48=AXIS2_PLACEMENT_3D('',#45,#46,#47);
#50=CARTESIAN_POINT('',(9.05E1,-1.4E2,6.E1));
#51=DIRECTION('',(0.E0,1.E0,0.E0));
#52=DIRECTION('',(1.E0,0.E0,0.E0));
#53=AXIS2_PLACEMENT_3D('',#50,#51,#52);
#55=DIRECTION('',(1.E0,0.E0,0.E0));
#56=VECTOR('',#55,4.6E1);
#57=CARTESIAN_POINT('',(5.55E1,-1.4E2,-7.35E1));
#58=LINE('',#57,#56);
#59=CARTESIAN_POINT('',(1.015E2,-1.4E2,-7.15E1));
#60=DIRECTION('',(0.E0,-1.E0,0.E0));
#61=DIRECTION('',(0.E0,0.E0,-1.E0));
#62=AXIS2_PLACEMENT_3D('',#59,#60,#61);
#64=DIRECTION('',(0.E0,0.E0,1.E0));
#65=VECTOR('',#64,1.43E2);
#66=CARTESIAN_POINT('',(1.035E2,-1.4E2,-7.15E1));
#67=LINE('',#66,#65);
#68=CARTESIAN_POINT('',(1.015E2,-1.4E2,7.15E1));
#69=DIRECTION('',(0.E0,-1.E0,0.E0));
#70=DIRECTION('',(1.E0,0.E0,0.E0));
#71=AXIS2_PLACEMENT_3D('',#68,#69,#70);
#73=DIRECTION('',(-1.E0,0.E0,0.E0));
#74=VECTOR('',#73,4.6E1);
#75=CARTESIAN_POINT('',(1.015E2,-1.4E2,7.35E1));
#76=LINE('',#75,#74);
#77=CARTESIAN_POINT('',(5.55E1,-1.4E2,7.15E1));
#78=DIRECTION('',(0.E0,-1.E0,0.E0));
#79=DIRECTION('',(0.E0,0.E0,1.E0));
#80=AXIS2_PLACEMENT_3D('',#77,#78,#79);
#82=DIRECTION('',(0.E0,0.E0,-1.E0));
#83=VECTOR('',#82,1.43E2);
#84=CARTESIAN_POINT('',(5.35E1,-1.4E2,7.15E1));
#85=LINE('',#84,#83);
#86=CARTESIAN_POINT('',(5.55E1,-1.4E2,-7.15E1));
#87=DIRECTION('',(0.E0,-1.E0,0.E0));
#88=DIRECTION('',(-1.E0,0.E0,0.E0));
#89=AXIS2_PLACEMENT_3D('',#86,#87,#88);
#91=CARTESIAN_POINT('',(6.5E1,-1.4E2,6.5E1));
#92=DIRECTION('',(0.E0,1.E0,0.E0));
#93=DIRECTION('',(1.E0,0.E0,0.E0));
#94=AXIS2_PLACEMENT_3D('',#91,#92,#93);
#96=CARTESIAN_POINT('',(6.5E1,-1.4E2,6.5E1));
#97=DIRECTION('',(0.E0,1.E0,0.E0));
#98=DIRECTION('',(-1.E0,0.E0,0.E0));
#99=AXIS2_PLACEMENT_3D('',#96,#97,#98);
#101=CARTESIAN_POINT('',(6.5E1,-1.4E2,-6.5E1));
#102=DIRECTION('',(0.E0,1.E0,0.E0));
#103=DIRECTION('',(1.E0,0.E0,0.E0));
#104=AXIS2_PLACEMENT_3D('',#101,#102,#103);
#106=CARTESIAN_POINT('',(6.5E1,-1.4E2,-6.5E1));
#107=DIRECTION('',(0.E0,1.E0,0.E0));
#108=DIRECTION('',(-1.E0,0.E0,0.E0));
#109=AXIS2_PLACEMENT_3D('',#106,#107,#108);
#111=DIRECTION('',(0.E0,-1.E0,0.E0));
#112=VECTOR('',#111,2.E0);
#113=CARTESIAN_POINT('',(8.725E1,-1.4E2,-6.E1));
#114=LINE('',#113,#112);
#115=DIRECTION('',(0.E0,-1.E0,0.E0));
#116=VECTOR('',#115,2.E0);
#117=CARTESIAN_POINT('',(9.375E1,-1.4E2,-6.E1));
#118=LINE('',#117,#116);
#119=CARTESIAN_POINT('',(9.05E1,-1.42E2,-6.E1));
#120=DIRECTION('',(0.E0,1.E0,0.E0));
#121=DIRECTION('',(-1.E0,0.E0,0.E0));
#122=AXIS2_PLACEMENT_3D('',#119,#120,#121);
#124=CARTESIAN_POINT('',(9.05E1,-1.42E2,-6.E1));
#125=DIRECTION('',(0.E0,1.E0,0.E0));
#126=DIRECTION('',(1.E0,0.E0,0.E0));
#127=AXIS2_PLACEMENT_3D('',#124,#125,#126);
#129=CARTESIAN_POINT('',(9.05E1,-1.42E2,6.E1));
#130=DIRECTION('',(0.E0,1.E0,0.E0));
#131=DIRECTION('',(-1.E0,0.E0,0.E0));
#132=AXIS2_PLACEMENT_3D('',#129,#130,#131);
#134=CARTESIAN_POINT('',(9.05E1,-1.42E2,6.E1));
#135=DIRECTION('',(0.E0,1.E0,0.E0));
#136=DIRECTION('',(1.E0,0.E0,0.E0));
#137=AXIS2_PLACEMENT_3D('',#134,#135,#136);
#139=DIRECTION('',(1.E0,0.E0,0.E0));
#140=VECTOR('',#139,4.6E1);
#141=CARTESIAN_POINT('',(5.55E1,-1.42E2,-7.35E1));
#142=LINE('',#141,#140);
#143=CARTESIAN_POINT('',(5.55E1,-1.42E2,-7.15E1));
#144=DIRECTION('',(0.E0,-1.E0,0.E0));
#145=DIRECTION('',(-1.E0,0.E0,0.E0));
#146=AXIS2_PLACEMENT_3D('',#143,#144,#145);
#148=DIRECTION('',(0.E0,0.E0,-1.E0));
#149=VECTOR('',#148,1.43E2);
#150=CARTESIAN_POINT('',(5.35E1,-1.42E2,7.15E1));
#151=LINE('',#150,#149);
#152=CARTESIAN_POINT('',(5.55E1,-1.42E2,7.15E1));
#153=DIRECTION('',(0.E0,-1.E0,0.E0));
#154=DIRECTION('',(0.E0,0.E0,1.E0));
#155=AXIS2_PLACEMENT_3D('',#152,#153,#154);
#157=DIRECTION('',(-1.E0,0.E0,0.E0));
#158=VECTOR('',#157,4.6E1);
#159=CARTESIAN_POINT('',(1.015E2,-1.42E2,7.35E1));
#160=LINE('',#159,#158);
#161=CARTESIAN_POINT('',(1.015E2,-1.42E2,7.15E1));
#162=DIRECTION('',(0.E0,-1.E0,0.E0));
#163=DIRECTION('',(1.E0,0.E0,0.E0));
#164=AXIS2_PLACEMENT_3D('',#161,#162,#163);
#166=DIRECTION('',(0.E0,0.E0,1.E0));
#167=VECTOR('',#166,1.43E2);
#168=CARTESIAN_POINT('',(1.035E2,-1.42E2,-7.15E1));
#169=LINE('',#168,#167);
#170=CARTESIAN_POINT('',(1.015E2,-1.42E2,-7.15E1));
#171=DIRECTION('',(0.E0,-1.E0,0.E0));
#172=DIRECTION('',(0.E0,0.E0,-1.E0));
#173=AXIS2_PLACEMENT_3D('',#170,#171,#172);
#175=CARTESIAN_POINT('',(6.5E1,-1.42E2,6.5E1));
#176=DIRECTION('',(0.E0,1.E0,0.E0));
#177=DIRECTION('',(1.E0,0.E0,0.E0));
#178=AXIS2_PLACEMENT_3D('',#175,#176,#177);
#180=CARTESIAN_POINT('',(6.5E1,-1.42E2,6.5E1));
#181=DIRECTION('',(0.E0,1.E0,0.E0));
#182=DIRECTION('',(-1.E0,0.E0,0.E0));
#183=AXIS2_PLACEMENT_3D('',#180,#181,#182);
#185=CARTESIAN_POINT('',(6.5E1,-1.42E2,-6.5E1));
#186=DIRECTION('',(0.E0,1.E0,0.E0));
#187=DIRECTION('',(1.E0,0.E0,0.E0));
#188=AXIS2_PLACEMENT_3D('',#185,#186,#187);
#190=CARTESIAN_POINT('',(6.5E1,-1.42E2,-6.5E1));
#191=DIRECTION('',(0.E0,1.E0,0.E0));
#192=DIRECTION('',(-1.E0,0.E0,0.E0));
#193=AXIS2_PLACEMENT_3D('',#190,#191,#192);
#195=DIRECTION('',(0.E0,-1.E0,0.E0));
#196=VECTOR('',#195,2.E0);
#197=CARTESIAN_POINT('',(8.725E1,-1.4E2,6.E1));
#198=LINE('',#197,#196);
#199=DIRECTION('',(0.E0,-1.E0,0.E0));
#200=VECTOR('',#199,2.E0);
#201=CARTESIAN_POINT('',(9.375E1,-1.4E2,6.E1));
#202=LINE('',#201,#200);
#203=DIRECTION('',(0.E0,-1.E0,0.E0));
#204=VECTOR('',#203,2.E0);
#205=CARTESIAN_POINT('',(5.55E1,-1.4E2,-7.35E1));
#206=LINE('',#205,#204);
#207=DIRECTION('',(0.E0,-1.E0,0.E0));
#208=VECTOR('',#207,2.E0);
#209=CARTESIAN_POINT('',(5.35E1,-1.4E2,-7.15E1));
#210=LINE('',#209,#208);
#211=DIRECTION('',(0.E0,-1.E0,0.E0));
#212=VECTOR('',#211,2.E0);
#213=CARTESIAN_POINT('',(5.35E1,-1.4E2,7.15E1));
#214=LINE('',#213,#212);
#215=DIRECTION('',(0.E0,-1.E0,0.E0));
#216=VECTOR('',#215,2.E0);
#217=CARTESIAN_POINT('',(5.55E1,-1.4E2,7.35E1));
#218=LINE('',#217,#216);
#219=DIRECTION('',(0.E0,-1.E0,0.E0));
#220=VECTOR('',#219,2.E0);
#221=CARTESIAN_POINT('',(1.015E2,-1.4E2,7.35E1));
#222=LINE('',#221,#220);
#223=DIRECTION('',(0.E0,-1.E0,0.E0));
#224=VECTOR('',#223,2.E0);
#225=CARTESIAN_POINT('',(1.035E2,-1.4E2,7.15E1));
#226=LINE('',#225,#224);
#227=DIRECTION('',(0.E0,-1.E0,0.E0));
#228=VECTOR('',#227,2.E0);
#229=CARTESIAN_POINT('',(1.035E2,-1.4E2,-7.15E1));
#230=LINE('',#229,#228);
#231=DIRECTION('',(0.E0,-1.E0,0.E0));
#232=VECTOR('',#231,2.E0);
#233=CARTESIAN_POINT('',(1.015E2,-1.4E2,-7.35E1));
#234=LINE('',#233,#232);
#235=DIRECTION('',(-7.071067811865E-1,7.071067811865E-1,0.E0));
#236=VECTOR('',#235,2.828427124746E0);
#237=CARTESIAN_POINT('',(6.275E1,-1.42E2,6.5E1));
#238=LINE('',#237,#236);
#239=DIRECTION('',(7.071067811865E-1,7.071067811865E-1,0.E0));
#240=VECTOR('',#239,2.828427124746E0);
#241=CARTESIAN_POINT('',(6.725E1,-1.42E2,6.5E1));
#242=LINE('',#241,#240);
#243=DIRECTION('',(-7.071067811865E-1,7.071067811865E-1,0.E0));
#244=VECTOR('',#243,2.828427124746E0);
#245=CARTESIAN_POINT('',(6.275E1,-1.42E2,-6.5E1));
#246=LINE('',#245,#244);
#247=DIRECTION('',(7.071067811865E-1,7.071067811865E-1,0.E0));
#248=VECTOR('',#247,2.828427124746E0);
#249=CARTESIAN_POINT('',(6.725E1,-1.42E2,-6.5E1));
#250=LINE('',#249,#248);
#251=CARTESIAN_POINT('',(8.725E1,-1.4E2,-6.E1));
#252=CARTESIAN_POINT('',(9.375E1,-1.4E2,-6.E1));
#253=VERTEX_POINT('',#251);
#254=VERTEX_POINT('',#252);
#255=CARTESIAN_POINT('',(8.725E1,-1.4E2,6.E1));
#256=CARTESIAN_POINT('',(9.375E1,-1.4E2,6.E1));
#257=VERTEX_POINT('',#255);
#258=VERTEX_POINT('',#256);
#259=CARTESIAN_POINT('',(5.55E1,-1.4E2,-7.35E1));
#260=CARTESIAN_POINT('',(1.015E2,-1.4E2,-7.35E1));
#261=VERTEX_POINT('',#259);
#262=VERTEX_POINT('',#260);
#263=CARTESIAN_POINT('',(1.035E2,-1.4E2,-7.15E1));
#264=VERTEX_POINT('',#263);
#265=CARTESIAN_POINT('',(1.035E2,-1.4E2,7.15E1));
#266=VERTEX_POINT('',#265);
#267=CARTESIAN_POINT('',(1.015E2,-1.4E2,7.35E1));
#268=VERTEX_POINT('',#267);
#269=CARTESIAN_POINT('',(5.55E1,-1.4E2,7.35E1));
#270=VERTEX_POINT('',#269);
#271=CARTESIAN_POINT('',(5.35E1,-1.4E2,7.15E1));
#272=VERTEX_POINT('',#271);
#273=CARTESIAN_POINT('',(5.35E1,-1.4E2,-7.15E1));
#274=VERTEX_POINT('',#273);
#275=CARTESIAN_POINT('',(8.725E1,-1.42E2,-6.E1));
#276=CARTESIAN_POINT('',(9.375E1,-1.42E2,-6.E1));
#277=VERTEX_POINT('',#275);
#278=VERTEX_POINT('',#276);
#279=CARTESIAN_POINT('',(8.725E1,-1.42E2,6.E1));
#280=CARTESIAN_POINT('',(9.375E1,-1.42E2,6.E1));
#281=VERTEX_POINT('',#279);
#282=VERTEX_POINT('',#280);
#283=CARTESIAN_POINT('',(5.55E1,-1.42E2,-7.35E1));
#284=CARTESIAN_POINT('',(1.015E2,-1.42E2,-7.35E1));
#285=VERTEX_POINT('',#283);
#286=VERTEX_POINT('',#284);
#287=CARTESIAN_POINT('',(1.035E2,-1.42E2,-7.15E1));
#288=VERTEX_POINT('',#287);
#289=CARTESIAN_POINT('',(1.035E2,-1.42E2,7.15E1));
#290=VERTEX_POINT('',#289);
#291=CARTESIAN_POINT('',(1.015E2,-1.42E2,7.35E1));
#292=VERTEX_POINT('',#291);
#293=CARTESIAN_POINT('',(5.55E1,-1.42E2,7.35E1));
#294=VERTEX_POINT('',#293);
#295=CARTESIAN_POINT('',(5.35E1,-1.42E2,7.15E1));
#296=VERTEX_POINT('',#295);
#297=CARTESIAN_POINT('',(5.35E1,-1.42E2,-7.15E1));
#298=VERTEX_POINT('',#297);
#299=CARTESIAN_POINT('',(6.925E1,-1.4E2,6.5E1));
#300=CARTESIAN_POINT('',(6.075E1,-1.4E2,6.5E1));
#301=VERTEX_POINT('',#299);
#302=VERTEX_POINT('',#300);
#303=CARTESIAN_POINT('',(6.725E1,-1.42E2,6.5E1));
#304=VERTEX_POINT('',#303);
#305=CARTESIAN_POINT('',(6.275E1,-1.42E2,6.5E1));
#306=VERTEX_POINT('',#305);
#307=CARTESIAN_POINT('',(6.925E1,-1.4E2,-6.5E1));
#308=CARTESIAN_POINT('',(6.075E1,-1.4E2,-6.5E1));
#309=VERTEX_POINT('',#307);
#310=VERTEX_POINT('',#308);
#311=CARTESIAN_POINT('',(6.725E1,-1.42E2,-6.5E1));
#312=CARTESIAN_POINT('',(6.275E1,-1.42E2,-6.5E1));
#313=VERTEX_POINT('',#311);
#314=VERTEX_POINT('',#312);
#315=CARTESIAN_POINT('',(0.E0,-1.4E2,0.E0));
#316=DIRECTION('',(0.E0,-1.E0,0.E0));
#317=DIRECTION('',(-1.E0,0.E0,0.E0));
#318=AXIS2_PLACEMENT_3D('',#315,#316,#317);
#319=PLANE('',#318);
#321=ORIENTED_EDGE('',*,*,#320,.T.);
#323=ORIENTED_EDGE('',*,*,#322,.T.);
#325=ORIENTED_EDGE('',*,*,#324,.T.);
#327=ORIENTED_EDGE('',*,*,#326,.T.);
#329=ORIENTED_EDGE('',*,*,#328,.T.);
#331=ORIENTED_EDGE('',*,*,#330,.T.);
#333=ORIENTED_EDGE('',*,*,#332,.T.);
#335=ORIENTED_EDGE('',*,*,#334,.T.);
#336=EDGE_LOOP('',(#321,#323,#325,#327,#329,#331,#333,#335));
#337=FACE_OUTER_BOUND('',#336,.F.);
#339=ORIENTED_EDGE('',*,*,#338,.T.);
#341=ORIENTED_EDGE('',*,*,#340,.T.);
#342=EDGE_LOOP('',(#339,#341));
#343=FACE_BOUND('',#342,.F.);
#345=ORIENTED_EDGE('',*,*,#344,.T.);
#347=ORIENTED_EDGE('',*,*,#346,.T.);
#348=EDGE_LOOP('',(#345,#347));
#349=FACE_BOUND('',#348,.F.);
#351=ORIENTED_EDGE('',*,*,#350,.T.);
#353=ORIENTED_EDGE('',*,*,#352,.T.);
#354=EDGE_LOOP('',(#351,#353));
#355=FACE_BOUND('',#354,.F.);
#357=ORIENTED_EDGE('',*,*,#356,.T.);
#359=ORIENTED_EDGE('',*,*,#358,.T.);
#360=EDGE_LOOP('',(#357,#359));
#361=FACE_BOUND('',#360,.F.);
#362=ADVANCED_FACE('',(#337,#343,#349,#355,#361),#319,.F.);
#363=CARTESIAN_POINT('',(9.05E1,-1.4E2,-6.E1));
#364=DIRECTION('',(0.E0,-1.E0,0.E0));
#365=DIRECTION('',(-1.E0,0.E0,0.E0));
#366=AXIS2_PLACEMENT_3D('',#363,#364,#365);
#367=CYLINDRICAL_SURFACE('',#366,3.25E0);
#368=ORIENTED_EDGE('',*,*,#344,.F.);
#370=ORIENTED_EDGE('',*,*,#369,.T.);
#372=ORIENTED_EDGE('',*,*,#371,.T.);
#374=ORIENTED_EDGE('',*,*,#373,.F.);
#375=EDGE_LOOP('',(#368,#370,#372,#374));
#376=FACE_OUTER_BOUND('',#375,.F.);
#377=ADVANCED_FACE('',(#376),#367,.F.);
#378=CARTESIAN_POINT('',(9.05E1,-1.4E2,-6.E1));
#379=DIRECTION('',(0.E0,-1.E0,0.E0));
#380=DIRECTION('',(-1.E0,0.E0,0.E0));
#381=AXIS2_PLACEMENT_3D('',#378,#379,#380);
#382=CYLINDRICAL_SURFACE('',#381,3.25E0);
#383=ORIENTED_EDGE('',*,*,#346,.F.);
#384=ORIENTED_EDGE('',*,*,#373,.T.);
#386=ORIENTED_EDGE('',*,*,#385,.T.);
#387=ORIENTED_EDGE('',*,*,#369,.F.);
#388=EDGE_LOOP('',(#383,#384,#386,#387));
#389=FACE_OUTER_BOUND('',#388,.F.);
#390=ADVANCED_FACE('',(#389),#382,.F.);
#391=CARTESIAN_POINT('',(0.E0,-1.42E2,0.E0));
#392=DIRECTION('',(0.E0,-1.E0,0.E0));
#393=DIRECTION('',(-1.E0,0.E0,0.E0));
#394=AXIS2_PLACEMENT_3D('',#391,#392,#393);
#395=PLANE('',#394);
#397=ORIENTED_EDGE('',*,*,#396,.F.);
#399=ORIENTED_EDGE('',*,*,#398,.F.);
#401=ORIENTED_EDGE('',*,*,#400,.F.);
#403=ORIENTED_EDGE('',*,*,#402,.F.);
#405=ORIENTED_EDGE('',*,*,#404,.F.);
#407=ORIENTED_EDGE('',*,*,#406,.F.);
#409=ORIENTED_EDGE('',*,*,#408,.F.);
#411=ORIENTED_EDGE('',*,*,#410,.F.);
#412=EDGE_LOOP('',(#397,#399,#401,#403,#405,#407,#409,#411));
#413=FACE_OUTER_BOUND('',#412,.F.);
#415=ORIENTED_EDGE('',*,*,#414,.F.);
#417=ORIENTED_EDGE('',*,*,#416,.F.);
#418=EDGE_LOOP('',(#415,#417));
#419=FACE_BOUND('',#418,.F.);
#420=ORIENTED_EDGE('',*,*,#371,.F.);
#421=ORIENTED_EDGE('',*,*,#385,.F.);
#422=EDGE_LOOP('',(#420,#421));
#423=FACE_BOUND('',#422,.F.);
#425=ORIENTED_EDGE('',*,*,#424,.F.);
#427=ORIENTED_EDGE('',*,*,#426,.F.);
#428=EDGE_LOOP('',(#425,#427));
#429=FACE_BOUND('',#428,.F.);
#431=ORIENTED_EDGE('',*,*,#430,.F.);
#433=ORIENTED_EDGE('',*,*,#432,.F.);
#434=EDGE_LOOP('',(#431,#433));
#435=FACE_BOUND('',#434,.F.);
#436=ADVANCED_FACE('',(#413,#419,#423,#429,#435),#395,.T.);
#437=FILL_AREA_STYLE_COLOUR('',#26);
#438=FILL_AREA_STYLE('',(#437));
#439=SURFACE_STYLE_FILL_AREA(#438);
#440=SURFACE_SIDE_STYLE('',(#439));
#441=SURFACE_STYLE_USAGE(.POSITIVE.,#440);
#442=PRESENTATION_STYLE_ASSIGNMENT((#441));
#443=STYLED_ITEM('',(#442),#436);
#444=CARTESIAN_POINT('',(9.05E1,-1.4E2,6.E1));
#445=DIRECTION('',(0.E0,-1.E0,0.E0));
#446=DIRECTION('',(-1.E0,0.E0,0.E0));
#447=AXIS2_PLACEMENT_3D('',#444,#445,#446);
#448=CYLINDRICAL_SURFACE('',#447,3.25E0);
#449=ORIENTED_EDGE('',*,*,#338,.F.);
#451=ORIENTED_EDGE('',*,*,#450,.T.);
#452=ORIENTED_EDGE('',*,*,#414,.T.);
#454=ORIENTED_EDGE('',*,*,#453,.F.);
#455=EDGE_LOOP('',(#449,#451,#452,#454));
#456=FACE_OUTER_BOUND('',#455,.F.);
#457=ADVANCED_FACE('',(#456),#448,.F.);
#458=CARTESIAN_POINT('',(9.05E1,-1.4E2,6.E1));
#459=DIRECTION('',(0.E0,-1.E0,0.E0));
#460=DIRECTION('',(-1.E0,0.E0,0.E0));
#461=AXIS2_PLACEMENT_3D('',#458,#459,#460);
#462=CYLINDRICAL_SURFACE('',#461,3.25E0);
#463=ORIENTED_EDGE('',*,*,#340,.F.);
#464=ORIENTED_EDGE('',*,*,#453,.T.);
#465=ORIENTED_EDGE('',*,*,#416,.T.);
#466=ORIENTED_EDGE('',*,*,#450,.F.);
#467=EDGE_LOOP('',(#463,#464,#465,#466));
#468=FACE_OUTER_BOUND('',#467,.F.);
#469=ADVANCED_FACE('',(#468),#462,.F.);
#470=CARTESIAN_POINT('',(5.55E1,-1.4E2,-7.35E1));
#471=DIRECTION('',(0.E0,0.E0,-1.E0));
#472=DIRECTION('',(1.E0,0.E0,0.E0));
#473=AXIS2_PLACEMENT_3D('',#470,#471,#472);
#474=PLANE('',#473);
#475=ORIENTED_EDGE('',*,*,#320,.F.);
#477=ORIENTED_EDGE('',*,*,#476,.T.);
#478=ORIENTED_EDGE('',*,*,#396,.T.);
#480=ORIENTED_EDGE('',*,*,#479,.F.);
#481=EDGE_LOOP('',(#475,#477,#478,#480));
#482=FACE_OUTER_BOUND('',#481,.F.);
#483=ADVANCED_FACE('',(#482),#474,.T.);
#484=CARTESIAN_POINT('',(5.55E1,-1.4E2,-7.15E1));
#485=DIRECTION('',(0.E0,-1.E0,0.E0));
#486=DIRECTION('',(-1.E0,0.E0,0.E0));
#487=AXIS2_PLACEMENT_3D('',#484,#485,#486);
#488=CYLINDRICAL_SURFACE('',#487,2.E0);
#489=ORIENTED_EDGE('',*,*,#334,.F.);
#491=ORIENTED_EDGE('',*,*,#490,.T.);
#492=ORIENTED_EDGE('',*,*,#398,.T.);
#493=ORIENTED_EDGE('',*,*,#476,.F.);
#494=EDGE_LOOP('',(#489,#491,#492,#493));
#495=FACE_OUTER_BOUND('',#494,.F.);
#496=ADVANCED_FACE('',(#495),#488,.T.);
#497=CARTESIAN_POINT('',(5.35E1,-1.4E2,7.15E1));
#498=DIRECTION('',(-1.E0,0.E0,0.E0));
#499=DIRECTION('',(0.E0,0.E0,-1.E0));
#500=AXIS2_PLACEMENT_3D('',#497,#498,#499);
#501=PLANE('',#500);
#502=ORIENTED_EDGE('',*,*,#332,.F.);
#504=ORIENTED_EDGE('',*,*,#503,.T.);
#505=ORIENTED_EDGE('',*,*,#400,.T.);
#506=ORIENTED_EDGE('',*,*,#490,.F.);
#507=EDGE_LOOP('',(#502,#504,#505,#506));
#508=FACE_OUTER_BOUND('',#507,.F.);
#509=ADVANCED_FACE('',(#508),#501,.T.);
#510=CARTESIAN_POINT('',(5.55E1,-1.4E2,7.15E1));
#511=DIRECTION('',(0.E0,-1.E0,0.E0));
#512=DIRECTION('',(-1.E0,0.E0,0.E0));
#513=AXIS2_PLACEMENT_3D('',#510,#511,#512);
#514=CYLINDRICAL_SURFACE('',#513,2.E0);
#515=ORIENTED_EDGE('',*,*,#330,.F.);
#517=ORIENTED_EDGE('',*,*,#516,.T.);
#518=ORIENTED_EDGE('',*,*,#402,.T.);
#519=ORIENTED_EDGE('',*,*,#503,.F.);
#520=EDGE_LOOP('',(#515,#517,#518,#519));
#521=FACE_OUTER_BOUND('',#520,.F.);
#522=ADVANCED_FACE('',(#521),#514,.T.);
#523=CARTESIAN_POINT('',(1.015E2,-1.4E2,7.35E1));
#524=DIRECTION('',(0.E0,0.E0,1.E0));
#525=DIRECTION('',(-1.E0,0.E0,0.E0));
#526=AXIS2_PLACEMENT_3D('',#523,#524,#525);
#527=PLANE('',#526);
#528=ORIENTED_EDGE('',*,*,#328,.F.);
#530=ORIENTED_EDGE('',*,*,#529,.T.);
#531=ORIENTED_EDGE('',*,*,#404,.T.);
#532=ORIENTED_EDGE('',*,*,#516,.F.);
#533=EDGE_LOOP('',(#528,#530,#531,#532));
#534=FACE_OUTER_BOUND('',#533,.F.);
#535=ADVANCED_FACE('',(#534),#527,.T.);
#536=CARTESIAN_POINT('',(1.015E2,-1.4E2,7.15E1));
#537=DIRECTION('',(0.E0,-1.E0,0.E0));
#538=DIRECTION('',(-1.E0,0.E0,0.E0));
#539=AXIS2_PLACEMENT_3D('',#536,#537,#538);
#540=CYLINDRICAL_SURFACE('',#539,2.E0);
#541=ORIENTED_EDGE('',*,*,#326,.F.);
#543=ORIENTED_EDGE('',*,*,#542,.T.);
#544=ORIENTED_EDGE('',*,*,#406,.T.);
#545=ORIENTED_EDGE('',*,*,#529,.F.);
#546=EDGE_LOOP('',(#541,#543,#544,#545));
#547=FACE_OUTER_BOUND('',#546,.F.);
#548=ADVANCED_FACE('',(#547),#540,.T.);
#549=CARTESIAN_POINT('',(1.035E2,-1.4E2,-7.15E1));
#550=DIRECTION('',(1.E0,0.E0,0.E0));
#551=DIRECTION('',(0.E0,0.E0,1.E0));
#552=AXIS2_PLACEMENT_3D('',#549,#550,#551);
#553=PLANE('',#552);
#554=ORIENTED_EDGE('',*,*,#324,.F.);
#556=ORIENTED_EDGE('',*,*,#555,.T.);
#557=ORIENTED_EDGE('',*,*,#408,.T.);
#558=ORIENTED_EDGE('',*,*,#542,.F.);
#559=EDGE_LOOP('',(#554,#556,#557,#558));
#560=FACE_OUTER_BOUND('',#559,.F.);
#561=ADVANCED_FACE('',(#560),#553,.T.);
#562=CARTESIAN_POINT('',(1.015E2,-1.4E2,-7.15E1));
#563=DIRECTION('',(0.E0,-1.E0,0.E0));
#564=DIRECTION('',(-1.E0,0.E0,0.E0));
#565=AXIS2_PLACEMENT_3D('',#562,#563,#564);
#566=CYLINDRICAL_SURFACE('',#565,2.E0);
#567=ORIENTED_EDGE('',*,*,#322,.F.);
#568=ORIENTED_EDGE('',*,*,#479,.T.);
#569=ORIENTED_EDGE('',*,*,#410,.T.);
#570=ORIENTED_EDGE('',*,*,#555,.F.);
#571=EDGE_LOOP('',(#567,#568,#569,#570));
#572=FACE_OUTER_BOUND('',#571,.F.);
#573=ADVANCED_FACE('',(#572),#566,.T.);
#574=CARTESIAN_POINT('',(6.5E1,-1.41E2,6.5E1));
#575=DIRECTION('',(0.E0,1.E0,0.E0));
#576=DIRECTION('',(1.E0,0.E0,0.E0));
#577=AXIS2_PLACEMENT_3D('',#574,#575,#576);
#578=CONICAL_SURFACE('',#577,3.25E0,4.5E1);
#579=ORIENTED_EDGE('',*,*,#350,.F.);
#581=ORIENTED_EDGE('',*,*,#580,.F.);
#582=ORIENTED_EDGE('',*,*,#424,.T.);
#584=ORIENTED_EDGE('',*,*,#583,.T.);
#585=EDGE_LOOP('',(#579,#581,#582,#584));
#586=FACE_OUTER_BOUND('',#585,.F.);
#587=ADVANCED_FACE('',(#586),#578,.F.);
#588=CARTESIAN_POINT('',(6.5E1,-1.41E2,6.5E1));
#589=DIRECTION('',(0.E0,1.E0,0.E0));
#590=DIRECTION('',(1.E0,0.E0,0.E0));
#591=AXIS2_PLACEMENT_3D('',#588,#589,#590);
#592=CONICAL_SURFACE('',#591,3.25E0,4.5E1);
#593=ORIENTED_EDGE('',*,*,#352,.F.);
#594=ORIENTED_EDGE('',*,*,#583,.F.);
#595=ORIENTED_EDGE('',*,*,#426,.T.);
#596=ORIENTED_EDGE('',*,*,#580,.T.);
#597=EDGE_LOOP('',(#593,#594,#595,#596));
#598=FACE_OUTER_BOUND('',#597,.F.);
#599=ADVANCED_FACE('',(#598),#592,.F.);
#600=CARTESIAN_POINT('',(6.5E1,-1.41E2,-6.5E1));
#601=DIRECTION('',(0.E0,1.E0,0.E0));
#602=DIRECTION('',(1.E0,0.E0,0.E0));
#603=AXIS2_PLACEMENT_3D('',#600,#601,#602);
#604=CONICAL_SURFACE('',#603,3.25E0,4.5E1);
#605=ORIENTED_EDGE('',*,*,#356,.F.);
#607=ORIENTED_EDGE('',*,*,#606,.F.);
#608=ORIENTED_EDGE('',*,*,#430,.T.);
#610=ORIENTED_EDGE('',*,*,#609,.T.);
#611=EDGE_LOOP('',(#605,#607,#608,#610));
#612=FACE_OUTER_BOUND('',#611,.F.);
#613=ADVANCED_FACE('',(#612),#604,.F.);
#614=CARTESIAN_POINT('',(6.5E1,-1.41E2,-6.5E1));
#615=DIRECTION('',(0.E0,1.E0,0.E0));
#616=DIRECTION('',(1.E0,0.E0,0.E0));
#617=AXIS2_PLACEMENT_3D('',#614,#615,#616);
#618=CONICAL_SURFACE('',#617,3.25E0,4.5E1);
#619=ORIENTED_EDGE('',*,*,#358,.F.);
#620=ORIENTED_EDGE('',*,*,#609,.F.);
#621=ORIENTED_EDGE('',*,*,#432,.T.);
#622=ORIENTED_EDGE('',*,*,#606,.T.);
#623=EDGE_LOOP('',(#619,#620,#621,#622));
#624=FACE_OUTER_BOUND('',#623,.F.);
#625=ADVANCED_FACE('',(#624),#618,.F.);
#626=CLOSED_SHELL('',(#362,#377,#390,#436,#457,#469,#483,#496,#509,#522,#535,
#548,#561,#573,#587,#599,#613,#625));
#627=MANIFOLD_SOLID_BREP('',#626);
#629=DIMENSIONAL_EXPONENTS(0.E0,0.E0,0.E0,0.E0,0.E0,0.E0,0.E0);
#631=PLANE_ANGLE_MEASURE_WITH_UNIT(PLANE_ANGLE_MEASURE(1.745329251994E-2),#630);
#632=(CONVERSION_BASED_UNIT('DEGREE',#631)NAMED_UNIT(*)PLANE_ANGLE_UNIT());
#634=UNCERTAINTY_MEASURE_WITH_UNIT(LENGTH_MEASURE(1.552774001540E-2),#628,
'closure',
'Maximum model space distance between geometric entities at asserted connectivities');
#635=(GEOMETRIC_REPRESENTATION_CONTEXT(3)GLOBAL_UNCERTAINTY_ASSIGNED_CONTEXT((
#634))GLOBAL_UNIT_ASSIGNED_CONTEXT((#628,#632,#633))REPRESENTATION_CONTEXT
('ID1','3'));
#637=MECHANICAL_DESIGN_GEOMETRIC_PRESENTATION_REPRESENTATION('',(#443),#635);
#638=APPLICATION_CONTEXT(
'CONFIGURATION CONTROLLED 3D DESIGNS OF MECHANICAL PARTS AND ASSEMBLIES');
#639=APPLICATION_PROTOCOL_DEFINITION('international standard',
'config_control_design',1994,#638);
#640=DESIGN_CONTEXT('',#638,'design');
#641=MECHANICAL_CONTEXT('',#638,'mechanical');
#642=PRODUCT('104-4393','104-4393','NOT SPECIFIED',(#641));
#643=PRODUCT_DEFINITION_FORMATION_WITH_SPECIFIED_SOURCE('1','LAST_VERSION',#642,
.MADE.);
#647=PRODUCT_CATEGORY('part','');
#648=PRODUCT_RELATED_PRODUCT_CATEGORY('detail','',(#642));
#649=PRODUCT_CATEGORY_RELATIONSHIP('','',#647,#648);
#650=SECURITY_CLASSIFICATION_LEVEL('unclassified');
#651=SECURITY_CLASSIFICATION('','',#650);
#652=CC_DESIGN_SECURITY_CLASSIFICATION(#651,(#643));
#653=APPROVAL_STATUS('approved');
#654=APPROVAL(#653,'');
#655=CC_DESIGN_APPROVAL(#654,(#651,#643,#644));
#656=CALENDAR_DATE(116,21,7);
#657=COORDINATED_UNIVERSAL_TIME_OFFSET(4,0,.BEHIND.);
#658=LOCAL_TIME(11,46,1.4E1,#657);
#659=DATE_AND_TIME(#656,#658);
#660=APPROVAL_DATE_TIME(#659,#654);
#661=DATE_TIME_ROLE('creation_date');
#662=CC_DESIGN_DATE_AND_TIME_ASSIGNMENT(#659,#661,(#644));
#663=DATE_TIME_ROLE('classification_date');
#664=CC_DESIGN_DATE_AND_TIME_ASSIGNMENT(#659,#663,(#651));
#665=PERSON('UNSPECIFIED','UNSPECIFIED',$,$,$,$);
#666=ORGANIZATION('UNSPECIFIED','UNSPECIFIED','UNSPECIFIED');
#667=PERSON_AND_ORGANIZATION(#665,#666);
#668=APPROVAL_ROLE('approver');
#669=APPROVAL_PERSON_ORGANIZATION(#667,#654,#668);
#670=PERSON_AND_ORGANIZATION_ROLE('creator');
#671=CC_DESIGN_PERSON_AND_ORGANIZATION_ASSIGNMENT(#667,#670,(#643,#644));
#672=PERSON_AND_ORGANIZATION_ROLE('design_supplier');
#673=CC_DESIGN_PERSON_AND_ORGANIZATION_ASSIGNMENT(#667,#672,(#643));
#674=PERSON_AND_ORGANIZATION_ROLE('classification_officer');
#675=CC_DESIGN_PERSON_AND_ORGANIZATION_ASSIGNMENT(#667,#674,(#651));
#676=PERSON_AND_ORGANIZATION_ROLE('design_owner');
#677=CC_DESIGN_PERSON_AND_ORGANIZATION_ASSIGNMENT(#667,#676,(#642));
#1=COLOUR_RGB('',0.E0,0.E0,1.960784313725E-1);
#2=COLOUR_RGB('',0.E0,0.E0,3.137254901961E-1);
#3=COLOUR_RGB('',0.E0,1.960784313725E-1,0.E0);
#4=COLOUR_RGB('',0.E0,3.137254901961E-1,0.E0);
#5=COLOUR_RGB('',7.843137254902E-2,7.843137254902E-2,7.843137254902E-2);
#6=COLOUR_RGB('',1.176470588235E-1,1.176470588235E-1,4.705882352941E-1);
#7=COLOUR_RGB('',1.568627450980E-1,1.568627450980E-1,1.568627450980E-1);
#8=COLOUR_RGB('',1.960784313725E-1,0.E0,0.E0);
#9=COLOUR_RGB('',1.960784313725E-1,0.E0,1.960784313725E-1);
#10=COLOUR_RGB('',1.960784313725E-1,5.882352941176E-1,1.960784313725E-1);
#11=COLOUR_RGB('',2.352941176471E-1,2.352941176471E-1,2.352941176471E-1);
#12=COLOUR_RGB('',2.352941176471E-1,2.352941176471E-1,5.882352941176E-1);
#13=COLOUR_RGB('',3.137254901961E-1,3.137254901961E-1,3.137254901961E-1);
#14=COLOUR_RGB('',3.294117647059E-1,1.E0,6.313725490196E-1);
#15=COLOUR_RGB('',3.921568627451E-1,0.E0,0.E0);
#16=COLOUR_RGB('',3.921568627451E-1,0.E0,3.921568627451E-1);
#17=COLOUR_RGB('',3.921568627451E-1,3.921568627451E-1,3.921568627451E-1);
#18=COLOUR_RGB('',3.921568627451E-1,3.921568627451E-1,8.627450980392E-1);
#19=COLOUR_RGB('',3.921568627451E-1,5.882352941176E-1,3.921568627451E-1);
#20=COLOUR_RGB('',3.921568627451E-1,5.882352941176E-1,8.627450980392E-1);
#21=COLOUR_RGB('',5.019607843137E-1,1.E0,5.019607843137E-1);
#22=COLOUR_RGB('',5.490196078431E-1,5.607843137255E-1,7.019607843137E-1);
#23=COLOUR_RGB('',5.882352941176E-1,5.882352941176E-1,5.882352941176E-1);
#24=COLOUR_RGB('',5.882352941176E-1,7.843137254902E-1,5.882352941176E-1);
#25=COLOUR_RGB('',6.196078431373E-1,3.098039215686E-1,6.509803921569E-1);
#26=COLOUR_RGB('',6.47059E-1,6.19608E-1,5.88235E-1);
#27=COLOUR_RGB('',6.784313725490E-1,8.509803921569E-1,1.E0);
#28=COLOUR_RGB('',6.941176470588E-1,7.411764705882E-1,7.882352941176E-1);
#29=COLOUR_RGB('',8.784E-1,9.49E-1,1.E0);
#30=COLOUR_RGB('',9.803921568627E-1,3.921568627451E-1,0.E0);
#31=COLOUR_RGB('',9.803921568627E-1,5.882352941176E-1,0.E0);
#32=COLOUR_RGB('',9.803921568627E-1,7.843137254902E-1,0.E0);
#33=COLOUR_RGB('',1.E0,3.686274509804E-1,3.803921568627E-1);
#34=DRAUGHTING_PRE_DEFINED_COLOUR('white');
#39=CIRCLE('',#38,3.25E0);
#44=CIRCLE('',#43,3.25E0);
#49=CIRCLE('',#48,3.25E0);
#54=CIRCLE('',#53,3.25E0);
#63=CIRCLE('',#62,2.E0);
#72=CIRCLE('',#71,2.E0);
#81=CIRCLE('',#80,2.E0);
#90=CIRCLE('',#89,2.E0);
#95=CIRCLE('',#94,4.25E0);
#100=CIRCLE('',#99,4.25E0);
#105=CIRCLE('',#104,4.25E0);
#110=CIRCLE('',#109,4.25E0);
#123=CIRCLE('',#122,3.25E0);
#128=CIRCLE('',#127,3.25E0);
#133=CIRCLE('',#132,3.25E0);
#138=CIRCLE('',#137,3.25E0);
#147=CIRCLE('',#146,2.E0);
#156=CIRCLE('',#155,2.E0);
#165=CIRCLE('',#164,2.E0);
#174=CIRCLE('',#173,2.E0);
#179=CIRCLE('',#178,2.25E0);
#184=CIRCLE('',#183,2.25E0);
#189=CIRCLE('',#188,2.25E0);
#194=CIRCLE('',#193,2.25E0);
#320=EDGE_CURVE('',#261,#262,#58,.T.);
#322=EDGE_CURVE('',#262,#264,#63,.T.);
#324=EDGE_CURVE('',#264,#266,#67,.T.);
#326=EDGE_CURVE('',#266,#268,#72,.T.);
#328=EDGE_CURVE('',#268,#270,#76,.T.);
#330=EDGE_CURVE('',#270,#272,#81,.T.);
#332=EDGE_CURVE('',#272,#274,#85,.T.);
#334=EDGE_CURVE('',#274,#261,#90,.T.);
#338=EDGE_CURVE('',#257,#258,#49,.T.);
#340=EDGE_CURVE('',#258,#257,#54,.T.);
#344=EDGE_CURVE('',#253,#254,#39,.T.);
#346=EDGE_CURVE('',#254,#253,#44,.T.);
#350=EDGE_CURVE('',#301,#302,#95,.T.);
#352=EDGE_CURVE('',#302,#301,#100,.T.);
#356=EDGE_CURVE('',#309,#310,#105,.T.);
#358=EDGE_CURVE('',#310,#309,#110,.T.);
#369=EDGE_CURVE('',#253,#277,#114,.T.);
#371=EDGE_CURVE('',#277,#278,#123,.T.);
#373=EDGE_CURVE('',#254,#278,#118,.T.);
#385=EDGE_CURVE('',#278,#277,#128,.T.);
#396=EDGE_CURVE('',#285,#286,#142,.T.);
#398=EDGE_CURVE('',#298,#285,#147,.T.);
#400=EDGE_CURVE('',#296,#298,#151,.T.);
#402=EDGE_CURVE('',#294,#296,#156,.T.);
#404=EDGE_CURVE('',#292,#294,#160,.T.);
#406=EDGE_CURVE('',#290,#292,#165,.T.);
#408=EDGE_CURVE('',#288,#290,#169,.T.);
#410=EDGE_CURVE('',#286,#288,#174,.T.);
#414=EDGE_CURVE('',#281,#282,#133,.T.);
#416=EDGE_CURVE('',#282,#281,#138,.T.);
#424=EDGE_CURVE('',#304,#306,#179,.T.);
#426=EDGE_CURVE('',#306,#304,#184,.T.);
#430=EDGE_CURVE('',#313,#314,#189,.T.);
#432=EDGE_CURVE('',#314,#313,#194,.T.);
#450=EDGE_CURVE('',#257,#281,#198,.T.);
#453=EDGE_CURVE('',#258,#282,#202,.T.);
#476=EDGE_CURVE('',#261,#285,#206,.T.);
#479=EDGE_CURVE('',#262,#286,#234,.T.);
#490=EDGE_CURVE('',#274,#298,#210,.T.);
#503=EDGE_CURVE('',#272,#296,#214,.T.);
#516=EDGE_CURVE('',#270,#294,#218,.T.);
#529=EDGE_CURVE('',#268,#292,#222,.T.);
#542=EDGE_CURVE('',#266,#290,#226,.T.);
#555=EDGE_CURVE('',#264,#288,#230,.T.);
#580=EDGE_CURVE('',#304,#301,#242,.T.);
#583=EDGE_CURVE('',#306,#302,#238,.T.);
#606=EDGE_CURVE('',#313,#309,#250,.T.);
#609=EDGE_CURVE('',#314,#310,#246,.T.);
#628=(LENGTH_UNIT()NAMED_UNIT(*)SI_UNIT(.MILLI.,.METRE.));
#630=(NAMED_UNIT(*)PLANE_ANGLE_UNIT()SI_UNIT($,.RADIAN.));
#633=(NAMED_UNIT(*)SI_UNIT($,.STERADIAN.)SOLID_ANGLE_UNIT());
#636=ADVANCED_BREP_SHAPE_REPRESENTATION('',(#627),#635);
#644=PRODUCT_DEFINITION('design','',#643,#640);
#645=PRODUCT_DEFINITION_SHAPE('','SHAPE FOR 104-4393.',#644);
#646=SHAPE_DEFINITION_REPRESENTATION(#645,#636);
ENDSEC;
END-ISO-10303-21;
